  0
SECTION
  2
HEADER
  9
$ACADVER
  1
AC1006
  9
$AXISMODE
 70
     0
  9
$AXISUNIT
 10
0.0625
 20
0.0625
  9
$CECOLOR
 62
0
  9
$CELTYPE
  6
CONTINUOUS
  9
$CLAYER
  8
LAYER1
  9
$EXTMIN
 10
0
 20
0
  9
$EXTMAX
 10
14.309
 20
10.8645
  9
$LIMMIN
 10
0
 20
0
  9
$LIMMAX
 10
14.309
 20
10.8645
  9
$GRIDMODE
 70
     0
  9
$GRIDUNIT
 10
0.125
 20
0.125
  9
$MIRRTEXT
 70
     1
  9
$SNAPMODE
 70
     1
  9
$SNAPUNIT
 10
0.125
 20
0
  9
$SNAPSTYLE
 70
     0
  9
$SPLINESEGS
 70
     8
  9
$SPLINETYPE
 70
     6
  0
ENDSEC
  0
SECTION
  2
TABLES
  0TABLE  2VPORT 70     2  0VPORT  2*ACTIVE 70     0 100.0 200.0 111.0 211.0 1213.01087 224.5 130.0 230.0 141.0 241.0 150.0 250.0 160.0 260.0 361.0 170.0 270.0 370.0 409.0 412.891304 4250.0 430.0 440.0 500.0 510.0 71     0 72   100 73     1 74     1 75     0 76     0 77     0 78     0  0ENDTAB
  0
TABLE
  2
LTYPE
 70
     3
  0
LTYPE
  2
CONTINUOUS
 70
    64
  3
Descriptive Text
 72
    65
 73
     0
 40
0
  0
LTYPE
  2
DASH1
 70
    64
  3
Descriptive Text
 72
    65
 73
     2
 40
0.0694
 49
0.0417
 49
-0.0278
  0
LTYPE
  2
DASH2
 70
    64
  3
Descriptive Text
 72
    65
 73
     2
 40
0.0556
 49
0.0278
 49
-0.0278
  0
ENDTAB
  0
TABLE
  2
LAYER
 70
     1
  0
LAYER
  2
LAYER1
 70
     0
 62
     7
  6
CONTINUOUS
  0
ENDTAB
  0TABLE  2STYLE 70     1  0STYLE  2STANDARD 70     0 400.0 411.0 500.0 71     0 420.2  3txt  4  0ENDTAB
  0
TABLE
  2
VIEW
 70
     0
  0
ENDTAB
  0
TABLE
  2
UCS
 70
     0
  0
ENDTAB
  0
TABLE
  2
DWGMGR
 70
     0
  0
ENDTAB
  0
ENDSEC
  0
SECTION
  2
BLOCKS
  0
BLOCK
  8
LAYER1
  2
Group1
 70
     0
 10
0
 20
0
 30
0
  0
TEXT
  8
LAYER1
 62
     7
 10
0.1962
 20
10.5651
 30
0
 40
0.125
  1
Electronics Shack - Relays and Switches
 50
0
999
Geneva
  0
LINE
  8
LAYER1
  6
CONTINUOUS
 62
     7
 10
0.2222
 20
10.8056
 30
0
 11
4.7639
 21
10.8056
 31
0
  0
ENDBLK
  8
LAYER1
  0
BLOCK
  8
LAYER1
  2
Group2
 70
     0
 10
0
 20
0
 30
0
  0
TEXT
  8
LAYER1
 62
     7
 10
8.599
 20
10.5651
 30
0
 40
0.125
  1
Electronics Shack - Ant, Gnds, Meters, and Sig. Sources
 50
0
999
Geneva
  0
LINE
  8
LAYER1
  6
CONTINUOUS
 62
     7
 10
0.2639
 20
10.4861
 30
0
 11
4.8056
 21
10.4861
 31
0
  0
LINE
  8
LAYER1
  6
CONTINUOUS
 62
     7
 10
8.625
 20
10.8056
 30
0
 11
13.9167
 21
10.8056
 31
0
  0
ENDBLK
  8
LAYER1
  0
BLOCK
  8
LAYER1
  2
Group3
 70
     0
 10
0
 20
0
 30
0
  0
LINE
  8
LAYER1
  6
CONTINUOUS
 62
     7
 10
8.6667
 20
10.4861
 30
0
 11
13.9583
 21
10.4861
 31
0
  0
POLYLINE
  8
LAYER1
  6
CONTINUOUS
 62
     7
 66
     1
 70
     0
 40
0.0039
 41
0.0039
  0
VERTEX
  8
LAYER1
 10
9.5486
 20
9.8333
 30
0
 70
     0
  0
VERTEX
  8
LAYER1
 10
9.5974
 20
9.8304
 30
0
 70
     0
  0
VERTEX
  8
LAYER1
 10
9.6363
 20
9.8216
 30
0
 70
     0
  0
VERTEX
  8
LAYER1
 10
9.6651
 20
9.807
 30
0
 70
     0
  0
VERTEX
  8
LAYER1
 10
9.684
 20
9.7864
 30
0
 70
     0
  0
VERTEX
  8
LAYER1
 10
9.6929
 20
9.7601
 30
0
 70
     0
  0
VERTEX
  8
LAYER1
 10
9.6918
 20
9.7279
 30
0
 70
     0
  0
VERTEX
  8
LAYER1
 10
9.6808
 20
9.6898
 30
0
 70
     0
  0
VERTEX
  8
LAYER1
 10
9.6597
 20
9.6458
 30
0
 70
     0
  0
VERTEX
  8
LAYER1
 10
9.6597
 20
9.6458
 30
0
 70
     0
  0
VERTEX
  8
LAYER1
 10
9.6336
 20
9.6048
 30
0
 70
     0
  0
VERTEX
  8
LAYER1
 10
9.6072
 20
9.5755
 30
0
 70
     0
  0
VERTEX
  8
LAYER1
 10
9.5806
 20
9.5579
 30
0
 70
     0
  0
VERTEX
  8
LAYER1
 10
9.5538
 20
9.5521
 30
0
 70
     0
  0
VERTEX
  8
LAYER1
 10
9.5268
 20
9.5579
 30
0
 70
     0
  0
VERTEX
  8
LAYER1
 10
9.4996
 20
9.5755
 30
0
 70
     0
  0
VERTEX
  8
LAYER1
 10
9.4721
 20
9.6048
 30
0
 70
     0
  0
VERTEX
  8
LAYER1
 10
9.4444
 20
9.6458
 30
0
 70
     0
  0
VERTEX
  8
LAYER1
 10
9.4444
 20
9.6458
 30
0
 70
     0
  0
VERTEX
  8
LAYER1
 10
9.4218
 20
9.6898
 30
0
 70
     0
  0
VERTEX
  8
LAYER1
 10
9.4093
 20
9.7279
 30
0
 70
     0
  0
VERTEX
  8
LAYER1
 10
9.407
 20
9.7601
 30
0
 70
     0
  0
VERTEX
  8
LAYER1
 10
9.4149
 20
9.7864
 30
0
 70
     0
  0
VERTEX
  8
LAYER1
 10
9.433
 20
9.807
 30
0
 70
     0
  0
VERTEX
  8
LAYER1
 10
9.4614
 20
9.8216
 30
0
 70
     0
  0
VERTEX
  8
LAYER1
 10
9.4999
 20
9.8304
 30
0
 70
     0
  0
VERTEX
  8
LAYER1
 10
9.5486
 20
9.8333
 30
0
 70
     0
  0
SEQEND
  0
ENDBLK
  8
LAYER1
  0
BLOCK
  8
LAYER1
  2
Group4
 70
     0
 10
0
 20
0
 30
0
  0
INSERT
  8
LAYER1
  2
Group3
 10
0
 20
0
 30
0
  0
ENDBLK
  8
LAYER1
  0
BLOCK
  8
LAYER1
  2
Group5
 70
     0
 10
0
 20
0
 30
0
  0
LINE
  8
LAYER1
  6
CONTINUOUS
 62
     7
 10
9.5556
 20
9.8333
 30
0
 11
9.5556
 21
9.3333
 31
0
  0
POLYLINE
  8
LAYER1
  6
CONTINUOUS
 62
     7
 66
     1
 70
     0
 40
0.0039
 41
0.0039
  0
VERTEX
  8
LAYER1
 10
11.2778
 20
9.5
 30
0
 70
     0
  0
VERTEX
  8
LAYER1
 10
11.4167
 20
9.5
 30
0
 70
     0
  0
VERTEX
  8
LAYER1
 10
11.4167
 20
9.3333
 30
0
 70
     0
  0
SEQEND
  0
POLYLINE
  8
LAYER1
  6
CONTINUOUS
 62
     7
 66
     1
 70
     0
 40
0.0039
 41
0.0039
  0
VERTEX
  8
LAYER1
 10
11.6528
 20
9.5
 30
0
 70
     0
  0
VERTEX
  8
LAYER1
 10
11.5139
 20
9.5
 30
0
 70
     0
  0
VERTEX
  8
LAYER1
 10
11.5139
 20
9.3333
 30
0
 70
     0
  0
SEQEND
  0
ENDBLK
  8
LAYER1
  0
BLOCK
  8
LAYER1
  2
Group6
 70
     0
 10
0
 20
0
 30
0
  0
INSERT
  8
LAYER1
  2
Group5
 10
0
 20
0
 30
0
  0
ENDBLK
  8
LAYER1
  0
BLOCK
  8
LAYER1
  2
Group7
 70
     0
 10
0
 20
0
 30
0
  0
POLYLINE
  8
LAYER1
  6
CONTINUOUS
 62
     7
 66
     1
 70
     0
 40
0.0039
 41
0.0039
  0
VERTEX
  8
LAYER1
 10
11.6528
 20
9.5
 30
0
 70
     0
  0
VERTEX
  8
LAYER1
 10
11.6528
 20
9.75
 30
0
 70
     0
  0
VERTEX
  8
LAYER1
 10
11.4028
 20
9.75
 30
0
 70
     0
  0
VERTEX
  8
LAYER1
 10
11.4028
 20
9.5833
 30
0
 70
     0
  0
VERTEX
  8
LAYER1
 10
11.5278
 20
9.5833
 30
0
 70
     0
  0
VERTEX
  8
LAYER1
 10
11.5278
 20
9.8333
 30
0
 70
     0
  0
VERTEX
  8
LAYER1
 10
11.2778
 20
9.8333
 30
0
 70
     0
  0
VERTEX
  8
LAYER1
 10
11.2778
 20
9.5
 30
0
 70
     0
  0
SEQEND
  0
LINE
  8
LAYER1
  6
CONTINUOUS
 62
     7
 10
9.4861
 20
8.0278
 30
0
 11
9.6111
 21
8.0278
 31
0
  0
LINE
  8
LAYER1
  6
CONTINUOUS
 62
     7
 10
9.4861
 20
8.0278
 30
0
 11
9.4167
 21
7.9306
 31
0
  0
LINE
  8
LAYER1
  6
CONTINUOUS
 62
     7
 10
9.5556
 20
8.0278
 30
0
 11
9.4861
 21
7.9306
 31
0
  0
LINE
  8
LAYER1
  6
CONTINUOUS
 62
     7
 10
9.6111
 20
8.0278
 30
0
 11
9.5556
 21
7.9306
 31
0
  0
ENDBLK
  8
LAYER1
  0
BLOCK
  8
LAYER1
  2
Group8
 70
     0
 10
0
 20
0
 30
0
  0
LINE
  8
LAYER1
  6
CONTINUOUS
 62
     7
 10
9.5556
 20
8.0278
 30
0
 11
9.5556
 21
8.4306
 31
0
  0
POLYLINE
  8
LAYER1
  6
CONTINUOUS
 62
     7
 66
     1
 70
     0
 40
0.0039
 41
0.0039
  0
VERTEX
  8
LAYER1
 10
11.5139
 20
8.0972
 30
0
 70
     0
  0
VERTEX
  8
LAYER1
 10
11.5364
 20
8.092
 30
0
 70
     0
  0
VERTEX
  8
LAYER1
 10
11.5486
 20
8.0764
 30
0
 70
     0
  0
VERTEX
  8
LAYER1
 10
11.5503
 20
8.0503
 30
0
 70
     0
  0
VERTEX
  8
LAYER1
 10
11.5417
 20
8.0139
 30
0
 70
     0
  0
VERTEX
  8
LAYER1
 10
11.5417
 20
8.0139
 30
0
 70
     0
  0
VERTEX
  8
LAYER1
 10
11.5278
 20
7.9826
 30
0
 70
     0
  0
VERTEX
  8
LAYER1
 10
11.5139
 20
7.9722
 30
0
 70
     0
  0
VERTEX
  8
LAYER1
 10
11.5
 20
7.9826
 30
0
 70
     0
  0
VERTEX
  8
LAYER1
 10
11.4861
 20
8.0139
 30
0
 70
     0
  0
VERTEX
  8
LAYER1
 10
11.4861
 20
8.0139
 30
0
 70
     0
  0
VERTEX
  8
LAYER1
 10
11.4774
 20
8.0503
 30
0
 70
     0
  0
VERTEX
  8
LAYER1
 10
11.4792
 20
8.0764
 30
0
 70
     0
  0
VERTEX
  8
LAYER1
 10
11.4913
 20
8.092
 30
0
 70
     0
  0
VERTEX
  8
LAYER1
 10
11.5139
 20
8.0972
 30
0
 70
     0
  0
SEQEND
  0
ENDBLK
  8
LAYER1
  0
BLOCK
  8
LAYER1
  2
Group9
 70
     0
 10
0
 20
0
 30
0
  0
INSERT
  8
LAYER1
  2
Group8
 10
0
 20
0
 30
0
  0
ENDBLK
  8
LAYER1
  0
BLOCK
  8
LAYER1
  2
Group10
 70
     0
 10
0
 20
0
 30
0
  0
INSERT
  8
LAYER1
  2
Group9
 10
0
 20
0
 30
0
  0
ENDBLK
  8
LAYER1
  0
BLOCK
  8
LAYER1
  2
Group11
 70
     0
 10
0
 20
0
 30
0
  0
LINE
  8
LAYER1
  6
CONTINUOUS
 62
     7
 10
11.5139
 20
8.4306
 30
0
 11
11.5139
 21
8.0972
 31
0
  0
SOLID
  8
LAYER1
 62
     7
 10
9.4306
 20
6.75
 30
0
 11
9.5139
 21
6.6944
 31
0
 12
9.4861
 22
6.6667
 32
0
 13
9.5
 23
6.6806
 33
0
  0
ENDBLK
  8
LAYER1
  0
BLOCK
  8
LAYER1
  2
Group12
 70
     0
 10
0
 20
0
 30
0
  0
TEXT
  8
LAYER1
 62
     7
 10
9.3768
 20
6.4956
 30
0
 40
0.0833
  1
volts
 50
0
999
Geneva
  0
INSERT
  8
LAYER1
  2
Group11
 10
0
 20
0
 30
0
  0
LINE
  8
LAYER1
  6
CONTINUOUS
 62
     7
 10
9.5556
 20
6.625
 30
0
 11
9.5
 21
6.6806
 31
0
  0
CIRCLE
  8
LAYER1
 10
9.5556
 20
6.625
 30
0
 40
0.2639
  0
POLYLINE
  8
LAYER1
  6
CONTINUOUS
 62
     7
 66
     1
 70
     0
 40
0.0039
 41
0.0039
  0
VERTEX
  8
LAYER1
 10
9.4279
 20
6.7527
 30
0
 70
     0
  0
VERTEX
  8
LAYER1
 10
9.4561
 20
6.7756
 30
0
 70
     0
  0
VERTEX
  8
LAYER1
 10
9.4875
 20
6.7921
 30
0
 70
     0
  0
VERTEX
  8
LAYER1
 10
9.521
 20
6.8019
 30
0
 70
     0
  0
VERTEX
  8
LAYER1
 10
9.5556
 20
6.8052
 30
0
 70
     0
  0
VERTEX
  8
LAYER1
 10
9.5901
 20
6.8019
 30
0
 70
     0
  0
VERTEX
  8
LAYER1
 10
9.6236
 20
6.7921
 30
0
 70
     0
  0
VERTEX
  8
LAYER1
 10
9.655
 20
6.7756
 30
0
 70
     0
  0
VERTEX
  8
LAYER1
 10
9.6832
 20
6.7527
 30
0
 70
     0
  0
SEQEND
  0
LINE
  8
LAYER1
  6
CONTINUOUS
 62
     7
 10
9.4444
 20
6.3889
 30
0
 11
9.4444
 21
6.2361
 31
0
  0
ENDBLK
  8
LAYER1
  0
BLOCK
  8
LAYER1
  2
Group13
 70
     0
 10
0
 20
0
 30
0
  0
INSERT
  8
LAYER1
  2
Group12
 10
0
 20
0
 30
0
  0
ENDBLK
  8
LAYER1
  0
BLOCK
  8
LAYER1
  2
Group14
 70
     0
 10
0
 20
0
 30
0
  0
LINE
  8
LAYER1
  6
CONTINUOUS
 62
     7
 10
9.6528
 20
6.3889
 30
0
 11
9.6528
 21
6.2361
 31
0
  0
POLYLINE
  8
LAYER1
  6
CONTINUOUS
 62
     7
 66
     1
 70
     1
 40
0.0039
 41
0.0039
  0
VERTEX
  8
LAYER1
 10
9.8194
 20
4.8542
 30
0
 70
     0
  0
VERTEX
  8
LAYER1
 10
9.814
 20
4.8027
 30
0
 70
     0
  0
VERTEX
  8
LAYER1
 10
9.7986
 20
4.7546
 30
0
 70
     0
  0
VERTEX
  8
LAYER1
 10
9.7741
 20
4.7109
 30
0
 70
     0
  0
VERTEX
  8
LAYER1
 10
9.7418
 20
4.6728
 30
0
 70
     0
  0
VERTEX
  8
LAYER1
 10
9.7027
 20
4.6414
 30
0
 70
     0
  0
VERTEX
  8
LAYER1
 10
9.6578
 20
4.6175
 30
0
 70
     0
  0
VERTEX
  8
LAYER1
 10
9.6085
 20
4.6025
 30
0
 70
     0
  0
VERTEX
  8
LAYER1
 10
9.5556
 20
4.5972
 30
0
 70
     0
  0
VERTEX
  8
LAYER1
 10
9.5556
 20
4.5972
 30
0
 70
     0
  0
VERTEX
  8
LAYER1
 10
9.5027
 20
4.6025
 30
0
 70
     0
  0
VERTEX
  8
LAYER1
 10
9.4533
 20
4.6175
 30
0
 70
     0
  0
VERTEX
  8
LAYER1
 10
9.4084
 20
4.6414
 30
0
 70
     0
  0
VERTEX
  8
LAYER1
 10
9.3693
 20
4.6728
 30
0
 70
     0
  0
VERTEX
  8
LAYER1
 10
9.337
 20
4.7109
 30
0
 70
     0
  0
VERTEX
  8
LAYER1
 10
9.3125
 20
4.7546
 30
0
 70
     0
  0
VERTEX
  8
LAYER1
 10
9.2971
 20
4.8027
 30
0
 70
     0
  0
VERTEX
  8
LAYER1
 10
9.2917
 20
4.8542
 30
0
 70
     0
  0
VERTEX
  8
LAYER1
 10
9.2917
 20
4.8542
 30
0
 70
     0
  0
VERTEX
  8
LAYER1
 10
9.2971
 20
4.9057
 30
0
 70
     0
  0
VERTEX
  8
LAYER1
 10
9.3125
 20
4.9538
 30
0
 70
     0
  0
VERTEX
  8
LAYER1
 10
9.337
 20
4.9974
 30
0
 70
     0
  0
VERTEX
  8
LAYER1
 10
9.3693
 20
5.0355
 30
0
 70
     0
  0
VERTEX
  8
LAYER1
 10
9.4084
 20
5.067
 30
0
 70
     0
  0
VERTEX
  8
LAYER1
 10
9.4533
 20
5.0908
 30
0
 70
     0
  0
VERTEX
  8
LAYER1
 10
9.5027
 20
5.1058
 30
0
 70
     0
  0
VERTEX
  8
LAYER1
 10
9.5556
 20
5.1111
 30
0
 70
     0
  0
VERTEX
  8
LAYER1
 10
9.5556
 20
5.1111
 30
0
 70
     0
  0
VERTEX
  8
LAYER1
 10
9.6085
 20
5.1058
 30
0
 70
     0
  0
VERTEX
  8
LAYER1
 10
9.6578
 20
5.0908
 30
0
 70
     0
  0
VERTEX
  8
LAYER1
 10
9.7027
 20
5.067
 30
0
 70
     0
  0
VERTEX
  8
LAYER1
 10
9.7418
 20
5.0355
 30
0
 70
     0
  0
VERTEX
  8
LAYER1
 10
9.7741
 20
4.9974
 30
0
 70
     0
  0
VERTEX
  8
LAYER1
 10
9.7986
 20
4.9538
 30
0
 70
     0
  0
VERTEX
  8
LAYER1
 10
9.814
 20
4.9057
 30
0
 70
     0
  0
VERTEX
  8
LAYER1
 10
9.8194
 20
4.8542
 30
0
 70
     0
  0
SEQEND
  0
LINE
  8
LAYER1
  6
CONTINUOUS
 62
     7
 10
9.5556
 20
5.2361
 30
0
 11
9.5556
 21
5.1111
 31
0
  0
LINE
  8
LAYER1
  6
CONTINUOUS
 62
     7
 10
9.5556
 20
4.6111
 30
0
 11
9.5556
 21
4.4306
 31
0
  0
POLYLINE
  8
LAYER1
  6
CONTINUOUS
 62
     7
 66
     1
 70
     0
 40
0.0039
 41
0.0039
  0
VERTEX
  8
LAYER1
 10
9.5694
 20
4.8542
 30
0
 70
     0
  0
VERTEX
  8
LAYER1
 10
9.5639
 20
4.803
 30
0
 70
     0
  0
VERTEX
  8
LAYER1
 10
9.549
 20
4.761
 30
0
 70
     0
  0
VERTEX
  8
LAYER1
 10
9.5387
 20
4.7449
 30
0
 70
     0
  0
VERTEX
  8
LAYER1
 10
9.5269
 20
4.7326
 30
0
 70
     0
  0
VERTEX
  8
LAYER1
 10
9.5139
 20
4.7249
 30
0
 70
     0
  0
VERTEX
  8
LAYER1
 10
9.5
 20
4.7222
 30
0
 70
     0
  0
VERTEX
  8
LAYER1
 10
9.5
 20
4.7222
 30
0
 70
     0
  0
VERTEX
  8
LAYER1
 10
9.4861
 20
4.7249
 30
0
 70
     0
  0
VERTEX
  8
LAYER1
 10
9.4731
 20
4.7326
 30
0
 70
     0
  0
VERTEX
  8
LAYER1
 10
9.4613
 20
4.7449
 30
0
 70
     0
  0
VERTEX
  8
LAYER1
 10
9.451
 20
4.761
 30
0
 70
     0
  0
VERTEX
  8
LAYER1
 10
9.436
 20
4.803
 30
0
 70
     0
  0
VERTEX
  8
LAYER1
 10
9.4306
 20
4.8542
 30
0
 70
     0
  0
SEQEND
  0
POLYLINE
  8
LAYER1
  6
CONTINUOUS
 62
     7
 66
     1
 70
     0
 40
0.0039
 41
0.0039
  0
VERTEX
  8
LAYER1
 10
9.5556
 20
4.8542
 30
0
 70
     0
  0
VERTEX
  8
LAYER1
 10
9.561
 20
4.9053
 30
0
 70
     0
  0
VERTEX
  8
LAYER1
 10
9.576
 20
4.9473
 30
0
 70
     0
  0
VERTEX
  8
LAYER1
 10
9.5863
 20
4.9634
 30
0
 70
     0
  0
VERTEX
  8
LAYER1
 10
9.5981
 20
4.9757
 30
0
 70
     0
  0
VERTEX
  8
LAYER1
 10
9.6111
 20
4.9834
 30
0
 70
     0
  0
VERTEX
  8
LAYER1
 10
9.625
 20
4.9861
 30
0
 70
     0
  0
VERTEX
  8
LAYER1
 10
9.625
 20
4.9861
 30
0
 70
     0
  0
VERTEX
  8
LAYER1
 10
9.6389
 20
4.9834
 30
0
 70
     0
  0
VERTEX
  8
LAYER1
 10
9.6519
 20
4.9757
 30
0
 70
     0
  0
VERTEX
  8
LAYER1
 10
9.6637
 20
4.9634
 30
0
 70
     0
  0
VERTEX
  8
LAYER1
 10
9.674
 20
4.9473
 30
0
 70
     0
  0
VERTEX
  8
LAYER1
 10
9.6889
 20
4.9053
 30
0
 70
     0
  0
VERTEX
  8
LAYER1
 10
9.6944
 20
4.8542
 30
0
 70
     0
  0
SEQEND
  0
ENDBLK
  8
LAYER1
  0
BLOCK
  8
LAYER1
  2
Group15
 70
     0
 10
0
 20
0
 30
0
  0
POLYLINE
  8
LAYER1
  6
CONTINUOUS
 62
     7
 66
     1
 70
     1
 40
0.0039
 41
0.0039
  0
VERTEX
  8
LAYER1
 10
11.7917
 20
4.8542
 30
0
 70
     0
  0
VERTEX
  8
LAYER1
 10
11.7863
 20
4.8027
 30
0
 70
     0
  0
VERTEX
  8
LAYER1
 10
11.7708
 20
4.7546
 30
0
 70
     0
  0
VERTEX
  8
LAYER1
 10
11.7463
 20
4.7109
 30
0
 70
     0
  0
VERTEX
  8
LAYER1
 10
11.714
 20
4.6728
 30
0
 70
     0
  0
VERTEX
  8
LAYER1
 10
11.6749
 20
4.6414
 30
0
 70
     0
  0
VERTEX
  8
LAYER1
 10
11.6301
 20
4.6175
 30
0
 70
     0
  0
VERTEX
  8
LAYER1
 10
11.5807
 20
4.6025
 30
0
 70
     0
  0
VERTEX
  8
LAYER1
 10
11.5278
 20
4.5972
 30
0
 70
     0
  0
VERTEX
  8
LAYER1
 10
11.5278
 20
4.5972
 30
0
 70
     0
  0
VERTEX
  8
LAYER1
 10
11.4749
 20
4.6025
 30
0
 70
     0
  0
VERTEX
  8
LAYER1
 10
11.4255
 20
4.6175
 30
0
 70
     0
  0
VERTEX
  8
LAYER1
 10
11.3807
 20
4.6414
 30
0
 70
     0
  0
VERTEX
  8
LAYER1
 10
11.3415
 20
4.6728
 30
0
 70
     0
  0
VERTEX
  8
LAYER1
 10
11.3092
 20
4.7109
 30
0
 70
     0
  0
VERTEX
  8
LAYER1
 10
11.2848
 20
4.7546
 30
0
 70
     0
  0
VERTEX
  8
LAYER1
 10
11.2693
 20
4.8027
 30
0
 70
     0
  0
VERTEX
  8
LAYER1
 10
11.2639
 20
4.8542
 30
0
 70
     0
  0
VERTEX
  8
LAYER1
 10
11.2639
 20
4.8542
 30
0
 70
     0
  0
VERTEX
  8
LAYER1
 10
11.2693
 20
4.9057
 30
0
 70
     0
  0
VERTEX
  8
LAYER1
 10
11.2848
 20
4.9538
 30
0
 70
     0
  0
VERTEX
  8
LAYER1
 10
11.3092
 20
4.9974
 30
0
 70
     0
  0
VERTEX
  8
LAYER1
 10
11.3415
 20
5.0355
 30
0
 70
     0
  0
VERTEX
  8
LAYER1
 10
11.3807
 20
5.067
 30
0
 70
     0
  0
VERTEX
  8
LAYER1
 10
11.4255
 20
5.0908
 30
0
 70
     0
  0
VERTEX
  8
LAYER1
 10
11.4749
 20
5.1058
 30
0
 70
     0
  0
VERTEX
  8
LAYER1
 10
11.5278
 20
5.1111
 30
0
 70
     0
  0
VERTEX
  8
LAYER1
 10
11.5278
 20
5.1111
 30
0
 70
     0
  0
VERTEX
  8
LAYER1
 10
11.5807
 20
5.1058
 30
0
 70
     0
  0
VERTEX
  8
LAYER1
 10
11.6301
 20
5.0908
 30
0
 70
     0
  0
VERTEX
  8
LAYER1
 10
11.6749
 20
5.067
 30
0
 70
     0
  0
VERTEX
  8
LAYER1
 10
11.714
 20
5.0355
 30
0
 70
     0
  0
VERTEX
  8
LAYER1
 10
11.7463
 20
4.9974
 30
0
 70
     0
  0
VERTEX
  8
LAYER1
 10
11.7708
 20
4.9538
 30
0
 70
     0
  0
VERTEX
  8
LAYER1
 10
11.7863
 20
4.9057
 30
0
 70
     0
  0
VERTEX
  8
LAYER1
 10
11.7917
 20
4.8542
 30
0
 70
     0
  0
SEQEND
  0
LINE
  8
LAYER1
  6
CONTINUOUS
 62
     7
 10
11.5139
 20
5.2361
 30
0
 11
11.5139
 21
5.1111
 31
0
  0
LINE
  8
LAYER1
  6
CONTINUOUS
 62
     7
 10
11.5139
 20
4.6111
 30
0
 11
11.5139
 21
4.4306
 31
0
  0
ENDBLK
  8
LAYER1
  0
BLOCK
  8
LAYER1
  2
Group16
 70
     0
 10
0
 20
0
 30
0
  0
SOLID
  8
LAYER1
 62
     7
 10
11.5139
 20
2.9861
 30
0
 11
11.4722
 21
3.125
 31
0
 12
11.5556
 22
3.125
 32
0
 13
11.5139
 23
3.125
 33
0
  0
ENDBLK
  8
LAYER1
  0
BLOCK
  8
LAYER1
  2
Group17
 70
     0
 10
0
 20
0
 30
0
  0
POLYLINE
  8
LAYER1
  6
CONTINUOUS
 62
     7
 66
     1
 70
     0
 40
0.0039
 41
0.0039
  0
VERTEX
  8
LAYER1
 10
11.3889
 20
4.8611
 30
0
 70
     0
  0
VERTEX
  8
LAYER1
 10
11.3889
 20
4.9167
 30
0
 70
     0
  0
VERTEX
  8
LAYER1
 10
11.4583
 20
4.9167
 30
0
 70
     0
  0
VERTEX
  8
LAYER1
 10
11.4583
 20
4.7917
 30
0
 70
     0
  0
VERTEX
  8
LAYER1
 10
11.5139
 20
4.7917
 30
0
 70
     0
  0
VERTEX
  8
LAYER1
 10
11.5139
 20
4.9167
 30
0
 70
     0
  0
VERTEX
  8
LAYER1
 10
11.5833
 20
4.9167
 30
0
 70
     0
  0
VERTEX
  8
LAYER1
 10
11.5833
 20
4.7917
 30
0
 70
     0
  0
VERTEX
  8
LAYER1
 10
11.6389
 20
4.7917
 30
0
 70
     0
  0
VERTEX
  8
LAYER1
 10
11.6389
 20
4.8611
 30
0
 70
     0
  0
SEQEND
  0
POLYLINE
  8
LAYER1
  6
CONTINUOUS
 62
     7
 66
     1
 70
     1
 40
0.0039
 41
0.0039
  0
VERTEX
  8
LAYER1
 10
11.7917
 20
3.2292
 30
0
 70
     0
  0
VERTEX
  8
LAYER1
 10
11.7863
 20
3.1777
 30
0
 70
     0
  0
VERTEX
  8
LAYER1
 10
11.7708
 20
3.1296
 30
0
 70
     0
  0
VERTEX
  8
LAYER1
 10
11.7463
 20
3.0859
 30
0
 70
     0
  0
VERTEX
  8
LAYER1
 10
11.714
 20
3.0478
 30
0
 70
     0
  0
VERTEX
  8
LAYER1
 10
11.6749
 20
3.0164
 30
0
 70
     0
  0
VERTEX
  8
LAYER1
 10
11.6301
 20
2.9925
 30
0
 70
     0
  0
VERTEX
  8
LAYER1
 10
11.5807
 20
2.9775
 30
0
 70
     0
  0
VERTEX
  8
LAYER1
 10
11.5278
 20
2.9722
 30
0
 70
     0
  0
VERTEX
  8
LAYER1
 10
11.5278
 20
2.9722
 30
0
 70
     0
  0
VERTEX
  8
LAYER1
 10
11.4749
 20
2.9775
 30
0
 70
     0
  0
VERTEX
  8
LAYER1
 10
11.4255
 20
2.9925
 30
0
 70
     0
  0
VERTEX
  8
LAYER1
 10
11.3807
 20
3.0164
 30
0
 70
     0
  0
VERTEX
  8
LAYER1
 10
11.3415
 20
3.0478
 30
0
 70
     0
  0
VERTEX
  8
LAYER1
 10
11.3092
 20
3.0859
 30
0
 70
     0
  0
VERTEX
  8
LAYER1
 10
11.2848
 20
3.1296
 30
0
 70
     0
  0
VERTEX
  8
LAYER1
 10
11.2693
 20
3.1777
 30
0
 70
     0
  0
VERTEX
  8
LAYER1
 10
11.2639
 20
3.2292
 30
0
 70
     0
  0
VERTEX
  8
LAYER1
 10
11.2639
 20
3.2292
 30
0
 70
     0
  0
VERTEX
  8
LAYER1
 10
11.2693
 20
3.2807
 30
0
 70
     0
  0
VERTEX
  8
LAYER1
 10
11.2848
 20
3.3288
 30
0
 70
     0
  0
VERTEX
  8
LAYER1
 10
11.3092
 20
3.3724
 30
0
 70
     0
  0
VERTEX
  8
LAYER1
 10
11.3415
 20
3.4105
 30
0
 70
     0
  0
VERTEX
  8
LAYER1
 10
11.3807
 20
3.442
 30
0
 70
     0
  0
VERTEX
  8
LAYER1
 10
11.4255
 20
3.4658
 30
0
 70
     0
  0
VERTEX
  8
LAYER1
 10
11.4749
 20
3.4808
 30
0
 70
     0
  0
VERTEX
  8
LAYER1
 10
11.5278
 20
3.4861
 30
0
 70
     0
  0
VERTEX
  8
LAYER1
 10
11.5278
 20
3.4861
 30
0
 70
     0
  0
VERTEX
  8
LAYER1
 10
11.5807
 20
3.4808
 30
0
 70
     0
  0
VERTEX
  8
LAYER1
 10
11.6301
 20
3.4658
 30
0
 70
     0
  0
VERTEX
  8
LAYER1
 10
11.6749
 20
3.442
 30
0
 70
     0
  0
VERTEX
  8
LAYER1
 10
11.714
 20
3.4105
 30
0
 70
     0
  0
VERTEX
  8
LAYER1
 10
11.7463
 20
3.3724
 30
0
 70
     0
  0
VERTEX
  8
LAYER1
 10
11.7708
 20
3.3288
 30
0
 70
     0
  0
VERTEX
  8
LAYER1
 10
11.7863
 20
3.2807
 30
0
 70
     0
  0
VERTEX
  8
LAYER1
 10
11.7917
 20
3.2292
 30
0
 70
     0
  0
SEQEND
  0
INSERT
  8
LAYER1
  2
Group16
 10
0
 20
0
 30
0
  0
LINE
  8
LAYER1
  6
CONTINUOUS
 62
     7
 10
11.5139
 20
3.4861
 30
0
 11
11.5139
 21
3.125
 31
0
  0
LINE
  8
LAYER1
  6
CONTINUOUS
 62
     7
 10
11.5139
 20
3.625
 30
0
 11
11.5139
 21
3.4861
 31
0
  0
ENDBLK
  8
LAYER1
  0
BLOCK
  8
LAYER1
  2
Group18
 70
     0
 10
0
 20
0
 30
0
  0
INSERT
  8
LAYER1
  2
Group17
 10
0
 20
0
 30
0
  0
ENDBLK
  8
LAYER1
  0
BLOCK
  8
LAYER1
  2
Group19
 70
     0
 10
0
 20
0
 30
0
  0
LINE
  8
LAYER1
  6
CONTINUOUS
 62
     7
 10
11.5139
 20
2.9861
 30
0
 11
11.5139
 21
2.8333
 31
0
  0
POLYLINE
  8
LAYER1
  6
CONTINUOUS
 62
     7
 66
     1
 70
     0
 40
0.0039
 41
0.0039
  0
VERTEX
  8
LAYER1
 10
13.3611
 20
9.8333
 30
0
 70
     0
  0
VERTEX
  8
LAYER1
 10
13.3904
 20
9.8255
 30
0
 70
     0
  0
VERTEX
  8
LAYER1
 10
13.4158
 20
9.8021
 30
0
 70
     0
  0
VERTEX
  8
LAYER1
 10
13.4373
 20
9.763
 30
0
 70
     0
  0
VERTEX
  8
LAYER1
 10
13.4549
 20
9.7083
 30
0
 70
     0
  0
VERTEX
  8
LAYER1
 10
13.4685
 20
9.638
 30
0
 70
     0
  0
VERTEX
  8
LAYER1
 10
13.4783
 20
9.5521
 30
0
 70
     0
  0
VERTEX
  8
LAYER1
 10
13.4842
 20
9.4505
 30
0
 70
     0
  0
VERTEX
  8
LAYER1
 10
13.4861
 20
9.3333
 30
0
 70
     0
  0
SEQEND
  0
POLYLINE
  8
LAYER1
  6
CONTINUOUS
 62
     7
 66
     1
 70
     0
 40
0.0039
 41
0.0039
  0
VERTEX
  8
LAYER1
 10
13.7083
 20
9.8333
 30
0
 70
     0
  0
VERTEX
  8
LAYER1
 10
13.679
 20
9.8255
 30
0
 70
     0
  0
VERTEX
  8
LAYER1
 10
13.6536
 20
9.8021
 30
0
 70
     0
  0
VERTEX
  8
LAYER1
 10
13.6322
 20
9.763
 30
0
 70
     0
  0
VERTEX
  8
LAYER1
 10
13.6146
 20
9.7083
 30
0
 70
     0
  0
VERTEX
  8
LAYER1
 10
13.6009
 20
9.638
 30
0
 70
     0
  0
VERTEX
  8
LAYER1
 10
13.5911
 20
9.5521
 30
0
 70
     0
  0
VERTEX
  8
LAYER1
 10
13.5853
 20
9.4505
 30
0
 70
     0
  0
VERTEX
  8
LAYER1
 10
13.5833
 20
9.3333
 30
0
 70
     0
  0
SEQEND
  0
ENDBLK
  8
LAYER1
  0
BLOCK
  8
LAYER1
  2
Group20
 70
     0
 10
0
 20
0
 30
0
  0
INSERT
  8
LAYER1
  2
Group19
 10
0
 20
0
 30
0
  0
ENDBLK
  8
LAYER1
  0
BLOCK
  8
LAYER1
  2
Group21
 70
     0
 10
0
 20
0
 30
0
  0
LINE
  8
LAYER1
  6
CONTINUOUS
 62
     7
 10
13.5556
 20
8.4167
 30
0
 11
13.5556
 21
8.1111
 31
0
  0
LINE
  8
LAYER1
  6
CONTINUOUS
 62
     7
 10
13.4306
 20
8.1111
 30
0
 11
13.6806
 21
8.1111
 31
0
  0
LINE
  8
LAYER1
  6
CONTINUOUS
 62
     7
 10
13.4861
 20
8.0417
 30
0
 11
13.6111
 21
8.0417
 31
0
  0
ENDBLK
  8
LAYER1
  0
BLOCK
  8
LAYER1
  2
Group22
 70
     0
 10
0
 20
0
 30
0
  0
INSERT
  8
LAYER1
  2
Group21
 10
0
 20
0
 30
0
  0
ENDBLK
  8
LAYER1
  0
BLOCK
  8
LAYER1
  2
Group23
 70
     0
 10
0
 20
0
 30
0
  0
LINE
  8
LAYER1
  6
CONTINUOUS
 62
     7
 10
13.5139
 20
7.9861
 30
0
 11
13.5833
 21
7.9861
 31
0
  0
SOLID
  8
LAYER1
 62
     7
 10
13.4306
 20
6.75
 30
0
 11
13.5139
 21
6.6944
 31
0
 12
13.4861
 22
6.6667
 32
0
 13
13.5
 23
6.6806
 33
0
  0
ENDBLK
  8
LAYER1
  0
BLOCK
  8
LAYER1
  2
Group24
 70
     0
 10
0
 20
0
 30
0
  0
TEXT
  8
LAYER1
 62
     7
 10
13.3629
 20
6.4956
 30
0
 40
0.0833
  1
watts
 50
0
999
Geneva
  0
INSERT
  8
LAYER1
  2
Group23
 10
0
 20
0
 30
0
  0
LINE
  8
LAYER1
  6
CONTINUOUS
 62
     7
 10
13.5556
 20
6.625
 30
0
 11
13.5
 21
6.6806
 31
0
  0
CIRCLE
  8
LAYER1
 10
13.5556
 20
6.625
 30
0
 40
0.2639
  0
POLYLINE
  8
LAYER1
  6
CONTINUOUS
 62
     7
 66
     1
 70
     0
 40
0.0039
 41
0.0039
  0
VERTEX
  8
LAYER1
 10
13.4279
 20
6.7527
 30
0
 70
     0
  0
VERTEX
  8
LAYER1
 10
13.4561
 20
6.7756
 30
0
 70
     0
  0
VERTEX
  8
LAYER1
 10
13.4875
 20
6.7921
 30
0
 70
     0
  0
VERTEX
  8
LAYER1
 10
13.521
 20
6.8019
 30
0
 70
     0
  0
VERTEX
  8
LAYER1
 10
13.5556
 20
6.8052
 30
0
 70
     0
  0
VERTEX
  8
LAYER1
 10
13.5901
 20
6.8019
 30
0
 70
     0
  0
VERTEX
  8
LAYER1
 10
13.6236
 20
6.7921
 30
0
 70
     0
  0
VERTEX
  8
LAYER1
 10
13.655
 20
6.7756
 30
0
 70
     0
  0
VERTEX
  8
LAYER1
 10
13.6832
 20
6.7527
 30
0
 70
     0
  0
SEQEND
  0
ENDBLK
  8
LAYER1
  0
BLOCK
  8
LAYER1
  2
Group25
 70
     0
 10
0
 20
0
 30
0
  0
INSERT
  8
LAYER1
  2
Group24
 10
0
 20
0
 30
0
  0
LINE
  8
LAYER1
  6
CONTINUOUS
 62
     7
 10
13.4444
 20
6.3889
 30
0
 11
13.4444
 21
6.2361
 31
0
  0
ENDBLK
  8
LAYER1
  0
BLOCK
  8
LAYER1
  2
Group26
 70
     0
 10
0
 20
0
 30
0
  0
INSERT
  8
LAYER1
  2
Group25
 10
0
 20
0
 30
0
  0
ENDBLK
  8
LAYER1
  0
BLOCK
  8
LAYER1
  2
Group27
 70
     0
 10
0
 20
0
 30
0
  0
LINE
  8
LAYER1
  6
CONTINUOUS
 62
     7
 10
13.6528
 20
6.4028
 30
0
 11
13.6528
 21
6.2361
 31
0
  0
SOLID
  8
LAYER1
 62
     7
 10
11.4028
 20
6.75
 30
0
 11
11.4861
 21
6.6944
 31
0
 12
11.4444
 22
6.6667
 32
0
 13
11.4722
 23
6.6806
 33
0
  0
ENDBLK
  8
LAYER1
  0
BLOCK
  8
LAYER1
  2
Group28
 70
     0
 10
0
 20
0
 30
0
  0
INSERT
  8
LAYER1
  2
Group27
 10
0
 20
0
 30
0
  0
LINE
  8
LAYER1
  6
CONTINUOUS
 62
     7
 10
11.5278
 20
6.625
 30
0
 11
11.4722
 21
6.6806
 31
0
  0
CIRCLE
  8
LAYER1
 10
11.5278
 20
6.625
 30
0
 40
0.2639
  0
POLYLINE
  8
LAYER1
  6
CONTINUOUS
 62
     7
 66
     1
 70
     0
 40
0.0039
 41
0.0039
  0
VERTEX
  8
LAYER1
 10
11.4001
 20
6.7527
 30
0
 70
     0
  0
VERTEX
  8
LAYER1
 10
11.4283
 20
6.7756
 30
0
 70
     0
  0
VERTEX
  8
LAYER1
 10
11.4597
 20
6.7921
 30
0
 70
     0
  0
VERTEX
  8
LAYER1
 10
11.4932
 20
6.8019
 30
0
 70
     0
  0
VERTEX
  8
LAYER1
 10
11.5278
 20
6.8052
 30
0
 70
     0
  0
VERTEX
  8
LAYER1
 10
11.5623
 20
6.8019
 30
0
 70
     0
  0
VERTEX
  8
LAYER1
 10
11.5959
 20
6.7921
 30
0
 70
     0
  0
VERTEX
  8
LAYER1
 10
11.6272
 20
6.7756
 30
0
 70
     0
  0
VERTEX
  8
LAYER1
 10
11.6555
 20
6.7527
 30
0
 70
     0
  0
SEQEND
  0
TEXT
  8
LAYER1
 62
     7
 10
11.349
 20
6.4956
 30
0
 40
0.0833
  1
amps
 50
0
999
Geneva
  0
ENDBLK
  8
LAYER1
  0
BLOCK
  8
LAYER1
  2
Group29
 70
     0
 10
0
 20
0
 30
0
  0
INSERT
  8
LAYER1
  2
Group28
 10
0
 20
0
 30
0
  0
LINE
  8
LAYER1
  6
CONTINUOUS
 62
     7
 10
11.4167
 20
6.2361
 30
0
 11
11.4167
 21
6.3889
 31
0
  0
ENDBLK
  8
LAYER1
  0
BLOCK
  8
LAYER1
  2
Group30
 70
     0
 10
0
 20
0
 30
0
  0
LINE
  8
LAYER1
  6
CONTINUOUS
 62
     7
 10
13.5556
 20
4.6111
 30
0
 11
13.5556
 21
4.4306
 31
0
  0
ENDBLK
  8
LAYER1
  0
BLOCK
  8
LAYER1
  2
Group31
 70
     0
 10
0
 20
0
 30
0
  0
LINE
  8
LAYER1
  6
CONTINUOUS
 62
     7
 10
11.625
 20
6.2361
 30
0
 11
11.625
 21
6.4028
 31
0
  0
POLYLINE
  8
LAYER1
  6
CONTINUOUS
 62
     7
 66
     1
 70
     1
 40
0.0039
 41
0.0039
  0
VERTEX
  8
LAYER1
 10
13.8194
 20
4.8542
 30
0
 70
     0
  0
VERTEX
  8
LAYER1
 10
13.814
 20
4.8027
 30
0
 70
     0
  0
VERTEX
  8
LAYER1
 10
13.7986
 20
4.7546
 30
0
 70
     0
  0
VERTEX
  8
LAYER1
 10
13.7741
 20
4.7109
 30
0
 70
     0
  0
VERTEX
  8
LAYER1
 10
13.7418
 20
4.6728
 30
0
 70
     0
  0
VERTEX
  8
LAYER1
 10
13.7027
 20
4.6414
 30
0
 70
     0
  0
VERTEX
  8
LAYER1
 10
13.6578
 20
4.6175
 30
0
 70
     0
  0
VERTEX
  8
LAYER1
 10
13.6085
 20
4.6025
 30
0
 70
     0
  0
VERTEX
  8
LAYER1
 10
13.5556
 20
4.5972
 30
0
 70
     0
  0
VERTEX
  8
LAYER1
 10
13.5556
 20
4.5972
 30
0
 70
     0
  0
VERTEX
  8
LAYER1
 10
13.5027
 20
4.6025
 30
0
 70
     0
  0
VERTEX
  8
LAYER1
 10
13.4533
 20
4.6175
 30
0
 70
     0
  0
VERTEX
  8
LAYER1
 10
13.4084
 20
4.6414
 30
0
 70
     0
  0
VERTEX
  8
LAYER1
 10
13.3693
 20
4.6728
 30
0
 70
     0
  0
VERTEX
  8
LAYER1
 10
13.337
 20
4.7109
 30
0
 70
     0
  0
VERTEX
  8
LAYER1
 10
13.3125
 20
4.7546
 30
0
 70
     0
  0
VERTEX
  8
LAYER1
 10
13.2971
 20
4.8027
 30
0
 70
     0
  0
VERTEX
  8
LAYER1
 10
13.2917
 20
4.8542
 30
0
 70
     0
  0
VERTEX
  8
LAYER1
 10
13.2917
 20
4.8542
 30
0
 70
     0
  0
VERTEX
  8
LAYER1
 10
13.2971
 20
4.9057
 30
0
 70
     0
  0
VERTEX
  8
LAYER1
 10
13.3125
 20
4.9538
 30
0
 70
     0
  0
VERTEX
  8
LAYER1
 10
13.337
 20
4.9974
 30
0
 70
     0
  0
VERTEX
  8
LAYER1
 10
13.3693
 20
5.0355
 30
0
 70
     0
  0
VERTEX
  8
LAYER1
 10
13.4084
 20
5.067
 30
0
 70
     0
  0
VERTEX
  8
LAYER1
 10
13.4533
 20
5.0908
 30
0
 70
     0
  0
VERTEX
  8
LAYER1
 10
13.5027
 20
5.1058
 30
0
 70
     0
  0
VERTEX
  8
LAYER1
 10
13.5556
 20
5.1111
 30
0
 70
     0
  0
VERTEX
  8
LAYER1
 10
13.5556
 20
5.1111
 30
0
 70
     0
  0
VERTEX
  8
LAYER1
 10
13.6085
 20
5.1058
 30
0
 70
     0
  0
VERTEX
  8
LAYER1
 10
13.6578
 20
5.0908
 30
0
 70
     0
  0
VERTEX
  8
LAYER1
 10
13.7027
 20
5.067
 30
0
 70
     0
  0
VERTEX
  8
LAYER1
 10
13.7418
 20
5.0355
 30
0
 70
     0
  0
VERTEX
  8
LAYER1
 10
13.7741
 20
4.9974
 30
0
 70
     0
  0
VERTEX
  8
LAYER1
 10
13.7986
 20
4.9538
 30
0
 70
     0
  0
VERTEX
  8
LAYER1
 10
13.814
 20
4.9057
 30
0
 70
     0
  0
VERTEX
  8
LAYER1
 10
13.8194
 20
4.8542
 30
0
 70
     0
  0
SEQEND
  0
LINE
  8
LAYER1
  6
CONTINUOUS
 62
     7
 10
13.5556
 20
5.2361
 30
0
 11
13.5556
 21
5.1111
 31
0
  0
INSERT
  8
LAYER1
  2
Group30
 10
0
 20
0
 30
0
  0
ENDBLK
  8
LAYER1
  0
BLOCK
  8
LAYER1
  2
Group32
 70
     0
 10
0
 20
0
 30
0
  0
INSERT
  8
LAYER1
  2
Group31
 10
0
 20
0
 30
0
  0
ENDBLK
  8
LAYER1
  0
BLOCK
  8
LAYER1
  2
Group33
 70
     0
 10
0
 20
0
 30
0
  0
POLYLINE
  8
LAYER1
  6
CONTINUOUS
 62
     7
 66
     1
 70
     0
 40
0.0039
 41
0.0039
  0
VERTEX
  8
LAYER1
 10
13.3889
 20
4.7917
 30
0
 70
     0
  0
VERTEX
  8
LAYER1
 10
13.4583
 20
4.9167
 30
0
 70
     0
  0
VERTEX
  8
LAYER1
 10
13.5139
 20
4.7917
 30
0
 70
     0
  0
VERTEX
  8
LAYER1
 10
13.5833
 20
4.9167
 30
0
 70
     0
  0
VERTEX
  8
LAYER1
 10
13.6389
 20
4.7917
 30
0
 70
     0
  0
VERTEX
  8
LAYER1
 10
13.7083
 20
4.9167
 30
0
 70
     0
  0
SEQEND
  0
LINE
  8
LAYER1
  6
CONTINUOUS
 62
     7
 10
0.6806
 20
10.0556
 30
0
 11
1.1806
 21
10.25
 31
0
  0
CIRCLE
  8
LAYER1
 10
0.6944
 20
10.0556
 30
0
 40
0.0556
  0
CIRCLE
  8
LAYER1
 10
0.6944
 20
10.0556
 30
0
 40
0.0556
  0
CIRCLE
  8
LAYER1
 10
1.1944
 20
10.0556
 30
0
 40
0.0556
  0
CIRCLE
  8
LAYER1
 10
1.1944
 20
10.0556
 30
0
 40
0.0556
  0
ENDBLK
  8
LAYER1
  0
BLOCK
  8
LAYER1
  2
Group34
 70
     0
 10
0
 20
0
 30
0
  0
INSERT
  8
LAYER1
  2
Group33
 10
0
 20
0
 30
0
  0
ENDBLK
  8
LAYER1
  0
BLOCK
  8
LAYER1
  2
Group35
 70
     0
 10
0
 20
0
 30
0
  0
POLYLINE
  8
LAYER1
  6
CONTINUOUS
 62
     7
 66
     1
 70
     0
 40
0.0039
 41
0.0039
  0
VERTEX
  8
LAYER1
 10
0.9514
 20
8.9722
 30
0
 70
     0
  0
VERTEX
  8
LAYER1
 10
0.9918
 20
8.9634
 30
0
 70
     0
  0
VERTEX
  8
LAYER1
 10
1.0249
 20
8.9395
 30
0
 70
     0
  0
VERTEX
  8
LAYER1
 10
1.0473
 20
8.9042
 30
0
 70
     0
  0
VERTEX
  8
LAYER1
 10
1.0556
 20
8.8611
 30
0
 70
     0
  0
SEQEND
  0
POLYLINE
  8
LAYER1
  6
CONTINUOUS
 62
     7
 66
     1
 70
     0
 40
0.0039
 41
0.0039
  0
VERTEX
  8
LAYER1
 10
1.0556
 20
8.8611
 30
0
 70
     0
  0
VERTEX
  8
LAYER1
 10
1.0473
 20
8.818
 30
0
 70
     0
  0
VERTEX
  8
LAYER1
 10
1.0249
 20
8.7827
 30
0
 70
     0
  0
VERTEX
  8
LAYER1
 10
0.9918
 20
8.7588
 30
0
 70
     0
  0
VERTEX
  8
LAYER1
 10
0.9514
 20
8.75
 30
0
 70
     0
  0
SEQEND
  0
POLYLINE
  8
LAYER1
  6
CONTINUOUS
 62
     7
 66
     1
 70
     0
 40
0.0039
 41
0.0039
  0
VERTEX
  8
LAYER1
 10
0.8472
 20
8.8333
 30
0
 70
     0
  0
VERTEX
  8
LAYER1
 10
0.8555
 20
8.8602
 30
0
 70
     0
  0
VERTEX
  8
LAYER1
 10
0.8779
 20
8.8823
 30
0
 70
     0
  0
VERTEX
  8
LAYER1
 10
0.911
 20
8.8973
 30
0
 70
     0
  0
VERTEX
  8
LAYER1
 10
0.9514
 20
8.9028
 30
0
 70
     0
  0
SEQEND
  0
POLYLINE
  8
LAYER1
  6
CONTINUOUS
 62
     7
 66
     1
 70
     0
 40
0.0039
 41
0.0039
  0
VERTEX
  8
LAYER1
 10
0.9514
 20
8.7639
 30
0
 70
     0
  0
VERTEX
  8
LAYER1
 10
0.911
 20
8.7694
 30
0
 70
     0
  0
VERTEX
  8
LAYER1
 10
0.8779
 20
8.7843
 30
0
 70
     0
  0
VERTEX
  8
LAYER1
 10
0.8555
 20
8.8064
 30
0
 70
     0
  0
VERTEX
  8
LAYER1
 10
0.8472
 20
8.8333
 30
0
 70
     0
  0
SEQEND
  0
ENDBLK
  8
LAYER1
  0
BLOCK
  8
LAYER1
  2
Group36
 70
     0
 10
0
 20
0
 30
0
  0
POLYLINE
  8
LAYER1
  6
CONTINUOUS
 62
     7
 66
     1
 70
     0
 40
0.0039
 41
0.0039
  0
VERTEX
  8
LAYER1
 10
0.9514
 20
8.9028
 30
0
 70
     0
  0
VERTEX
  8
LAYER1
 10
0.9918
 20
8.894
 30
0
 70
     0
  0
VERTEX
  8
LAYER1
 10
1.0249
 20
8.8701
 30
0
 70
     0
  0
VERTEX
  8
LAYER1
 10
1.0473
 20
8.8347
 30
0
 70
     0
  0
VERTEX
  8
LAYER1
 10
1.0556
 20
8.7917
 30
0
 70
     0
  0
SEQEND
  0
POLYLINE
  8
LAYER1
  6
CONTINUOUS
 62
     7
 66
     1
 70
     0
 40
0.0039
 41
0.0039
  0
VERTEX
  8
LAYER1
 10
1.0556
 20
8.7917
 30
0
 70
     0
  0
VERTEX
  8
LAYER1
 10
1.0473
 20
8.7486
 30
0
 70
     0
  0
VERTEX
  8
LAYER1
 10
1.0249
 20
8.7133
 30
0
 70
     0
  0
VERTEX
  8
LAYER1
 10
0.9918
 20
8.6893
 30
0
 70
     0
  0
VERTEX
  8
LAYER1
 10
0.9514
 20
8.6806
 30
0
 70
     0
  0
SEQEND
  0
POLYLINE
  8
LAYER1
  6
CONTINUOUS
 62
     7
 66
     1
 70
     0
 40
0.0039
 41
0.0039
  0
VERTEX
  8
LAYER1
 10
0.8472
 20
8.75
 30
0
 70
     0
  0
VERTEX
  8
LAYER1
 10
0.8555
 20
8.7769
 30
0
 70
     0
  0
VERTEX
  8
LAYER1
 10
0.8779
 20
8.799
 30
0
 70
     0
  0
VERTEX
  8
LAYER1
 10
0.911
 20
8.8139
 30
0
 70
     0
  0
VERTEX
  8
LAYER1
 10
0.9514
 20
8.8194
 30
0
 70
     0
  0
SEQEND
  0
POLYLINE
  8
LAYER1
  6
CONTINUOUS
 62
     7
 66
     1
 70
     0
 40
0.0039
 41
0.0039
  0
VERTEX
  8
LAYER1
 10
0.9514
 20
8.6806
 30
0
 70
     0
  0
VERTEX
  8
LAYER1
 10
0.911
 20
8.686
 30
0
 70
     0
  0
VERTEX
  8
LAYER1
 10
0.8779
 20
8.701
 30
0
 70
     0
  0
VERTEX
  8
LAYER1
 10
0.8555
 20
8.7231
 30
0
 70
     0
  0
VERTEX
  8
LAYER1
 10
0.8472
 20
8.75
 30
0
 70
     0
  0
SEQEND
  0
ENDBLK
  8
LAYER1
  0
BLOCK
  8
LAYER1
  2
Group37
 70
     0
 10
0
 20
0
 30
0
  0
POLYLINE
  8
LAYER1
  6
CONTINUOUS
 62
     7
 66
     1
 70
     0
 40
0.0039
 41
0.0039
  0
VERTEX
  8
LAYER1
 10
0.9514
 20
8.8194
 30
0
 70
     0
  0
VERTEX
  8
LAYER1
 10
0.9918
 20
8.8106
 30
0
 70
     0
  0
VERTEX
  8
LAYER1
 10
1.0249
 20
8.7867
 30
0
 70
     0
  0
VERTEX
  8
LAYER1
 10
1.0473
 20
8.7514
 30
0
 70
     0
  0
VERTEX
  8
LAYER1
 10
1.0556
 20
8.7083
 30
0
 70
     0
  0
SEQEND
  0
POLYLINE
  8
LAYER1
  6
CONTINUOUS
 62
     7
 66
     1
 70
     0
 40
0.0039
 41
0.0039
  0
VERTEX
  8
LAYER1
 10
1.0556
 20
8.7083
 30
0
 70
     0
  0
VERTEX
  8
LAYER1
 10
1.0473
 20
8.6652
 30
0
 70
     0
  0
VERTEX
  8
LAYER1
 10
1.0249
 20
8.6299
 30
0
 70
     0
  0
VERTEX
  8
LAYER1
 10
0.9918
 20
8.606
 30
0
 70
     0
  0
VERTEX
  8
LAYER1
 10
0.9514
 20
8.5972
 30
0
 70
     0
  0
SEQEND
  0
POLYLINE
  8
LAYER1
  6
CONTINUOUS
 62
     7
 66
     1
 70
     0
 40
0.0039
 41
0.0039
  0
VERTEX
  8
LAYER1
 10
0.8472
 20
8.6806
 30
0
 70
     0
  0
VERTEX
  8
LAYER1
 10
0.8555
 20
8.7075
 30
0
 70
     0
  0
VERTEX
  8
LAYER1
 10
0.8779
 20
8.7295
 30
0
 70
     0
  0
VERTEX
  8
LAYER1
 10
0.911
 20
8.7445
 30
0
 70
     0
  0
VERTEX
  8
LAYER1
 10
0.9514
 20
8.75
 30
0
 70
     0
  0
SEQEND
  0
POLYLINE
  8
LAYER1
  6
CONTINUOUS
 62
     7
 66
     1
 70
     0
 40
0.0039
 41
0.0039
  0
VERTEX
  8
LAYER1
 10
0.9514
 20
8.6111
 30
0
 70
     0
  0
VERTEX
  8
LAYER1
 10
0.911
 20
8.6166
 30
0
 70
     0
  0
VERTEX
  8
LAYER1
 10
0.8779
 20
8.6315
 30
0
 70
     0
  0
VERTEX
  8
LAYER1
 10
0.8555
 20
8.6536
 30
0
 70
     0
  0
VERTEX
  8
LAYER1
 10
0.8472
 20
8.6806
 30
0
 70
     0
  0
SEQEND
  0
ENDBLK
  8
LAYER1
  0
BLOCK
  8
LAYER1
  2
Group38
 70
     0
 10
0
 20
0
 30
0
  0
POLYLINE
  8
LAYER1
  6
CONTINUOUS
 62
     7
 66
     1
 70
     0
 40
0.0039
 41
0.0039
  0
VERTEX
  8
LAYER1
 10
0.9514
 20
8.75
 30
0
 70
     0
  0
VERTEX
  8
LAYER1
 10
0.9918
 20
8.7412
 30
0
 70
     0
  0
VERTEX
  8
LAYER1
 10
1.0249
 20
8.7173
 30
0
 70
     0
  0
VERTEX
  8
LAYER1
 10
1.0473
 20
8.682
 30
0
 70
     0
  0
VERTEX
  8
LAYER1
 10
1.0556
 20
8.6389
 30
0
 70
     0
  0
SEQEND
  0
POLYLINE
  8
LAYER1
  6
CONTINUOUS
 62
     7
 66
     1
 70
     0
 40
0.0039
 41
0.0039
  0
VERTEX
  8
LAYER1
 10
1.0556
 20
8.6389
 30
0
 70
     0
  0
VERTEX
  8
LAYER1
 10
1.0473
 20
8.5958
 30
0
 70
     0
  0
VERTEX
  8
LAYER1
 10
1.0249
 20
8.5605
 30
0
 70
     0
  0
VERTEX
  8
LAYER1
 10
0.9918
 20
8.5366
 30
0
 70
     0
  0
VERTEX
  8
LAYER1
 10
0.9514
 20
8.5278
 30
0
 70
     0
  0
SEQEND
  0
POLYLINE
  8
LAYER1
  6
CONTINUOUS
 62
     7
 66
     1
 70
     0
 40
0.0039
 41
0.0039
  0
VERTEX
  8
LAYER1
 10
0.8472
 20
8.5972
 30
0
 70
     0
  0
VERTEX
  8
LAYER1
 10
0.8555
 20
8.6241
 30
0
 70
     0
  0
VERTEX
  8
LAYER1
 10
0.8779
 20
8.6462
 30
0
 70
     0
  0
VERTEX
  8
LAYER1
 10
0.911
 20
8.6612
 30
0
 70
     0
  0
VERTEX
  8
LAYER1
 10
0.9514
 20
8.6667
 30
0
 70
     0
  0
SEQEND
  0
POLYLINE
  8
LAYER1
  6
CONTINUOUS
 62
     7
 66
     1
 70
     0
 40
0.0039
 41
0.0039
  0
VERTEX
  8
LAYER1
 10
0.9514
 20
8.5278
 30
0
 70
     0
  0
VERTEX
  8
LAYER1
 10
0.911
 20
8.5333
 30
0
 70
     0
  0
VERTEX
  8
LAYER1
 10
0.8779
 20
8.5482
 30
0
 70
     0
  0
VERTEX
  8
LAYER1
 10
0.8555
 20
8.5703
 30
0
 70
     0
  0
VERTEX
  8
LAYER1
 10
0.8472
 20
8.5972
 30
0
 70
     0
  0
SEQEND
  0
ENDBLK
  8
LAYER1
  0
BLOCK
  8
LAYER1
  2
Group39
 70
     0
 10
0
 20
0
 30
0
  0
INSERT
  8
LAYER1
  2
Group35
 10
0
 20
0
 30
0
  0
INSERT
  8
LAYER1
  2
Group36
 10
0
 20
0
 30
0
  0
INSERT
  8
LAYER1
  2
Group37
 10
0
 20
0
 30
0
  0
INSERT
  8
LAYER1
  2
Group38
 10
0
 20
0
 30
0
  0
ENDBLK
  8
LAYER1
  0
BLOCK
  8
LAYER1
  2
Group40
 70
     0
 10
0
 20
0
 30
0
  0
LINE
  8
LAYER1
  6
CONTINUOUS
 62
     7
 10
0.6806
 20
8.9028
 30
0
 11
1.1806
 21
9.0833
 31
0
  0
CIRCLE
  8
LAYER1
 10
0.6944
 20
8.8889
 30
0
 40
0.0556
  0
CIRCLE
  8
LAYER1
 10
0.6944
 20
8.8889
 30
0
 40
0.0556
  0
CIRCLE
  8
LAYER1
 10
1.1944
 20
8.8889
 30
0
 40
0.0556
  0
CIRCLE
  8
LAYER1
 10
1.1944
 20
8.8889
 30
0
 40
0.0556
  0
INSERT
  8
LAYER1
  2
Group39
 10
0
 20
0
 30
0
  0
ENDBLK
  8
LAYER1
  0
BLOCK
  8
LAYER1
  2
Group41
 70
     0
 10
0
 20
0
 30
0
  0
INSERT
  8
LAYER1
  2
Group40
 10
0
 20
0
 30
0
  0
ENDBLK
  8
LAYER1
  0
BLOCK
  8
LAYER1
  2
Group42
 70
     0
 10
0
 20
0
 30
0
  0
POLYLINE
  8
LAYER1
  6
CONTINUOUS
 62
     7
 66
     1
 70
     0
 40
0.0039
 41
0.0039
  0
VERTEX
  8
LAYER1
 10
0.9514
 20
7.5139
 30
0
 70
     0
  0
VERTEX
  8
LAYER1
 10
0.9918
 20
7.5051
 30
0
 70
     0
  0
VERTEX
  8
LAYER1
 10
1.0249
 20
7.4812
 30
0
 70
     0
  0
VERTEX
  8
LAYER1
 10
1.0473
 20
7.4458
 30
0
 70
     0
  0
VERTEX
  8
LAYER1
 10
1.0556
 20
7.4028
 30
0
 70
     0
  0
SEQEND
  0
POLYLINE
  8
LAYER1
  6
CONTINUOUS
 62
     7
 66
     1
 70
     0
 40
0.0039
 41
0.0039
  0
VERTEX
  8
LAYER1
 10
1.0556
 20
7.4028
 30
0
 70
     0
  0
VERTEX
  8
LAYER1
 10
1.0473
 20
7.3597
 30
0
 70
     0
  0
VERTEX
  8
LAYER1
 10
1.0249
 20
7.3244
 30
0
 70
     0
  0
VERTEX
  8
LAYER1
 10
0.9918
 20
7.3005
 30
0
 70
     0
  0
VERTEX
  8
LAYER1
 10
0.9514
 20
7.2917
 30
0
 70
     0
  0
SEQEND
  0
POLYLINE
  8
LAYER1
  6
CONTINUOUS
 62
     7
 66
     1
 70
     0
 40
0.0039
 41
0.0039
  0
VERTEX
  8
LAYER1
 10
0.8472
 20
7.375
 30
0
 70
     0
  0
VERTEX
  8
LAYER1
 10
0.8555
 20
7.4019
 30
0
 70
     0
  0
VERTEX
  8
LAYER1
 10
0.8779
 20
7.424
 30
0
 70
     0
  0
VERTEX
  8
LAYER1
 10
0.911
 20
7.4389
 30
0
 70
     0
  0
VERTEX
  8
LAYER1
 10
0.9514
 20
7.4444
 30
0
 70
     0
  0
SEQEND
  0
POLYLINE
  8
LAYER1
  6
CONTINUOUS
 62
     7
 66
     1
 70
     0
 40
0.0039
 41
0.0039
  0
VERTEX
  8
LAYER1
 10
0.9514
 20
7.3056
 30
0
 70
     0
  0
VERTEX
  8
LAYER1
 10
0.911
 20
7.311
 30
0
 70
     0
  0
VERTEX
  8
LAYER1
 10
0.8779
 20
7.326
 30
0
 70
     0
  0
VERTEX
  8
LAYER1
 10
0.8555
 20
7.3481
 30
0
 70
     0
  0
VERTEX
  8
LAYER1
 10
0.8472
 20
7.375
 30
0
 70
     0
  0
SEQEND
  0
ENDBLK
  8
LAYER1
  0
BLOCK
  8
LAYER1
  2
Group43
 70
     0
 10
0
 20
0
 30
0
  0
POLYLINE
  8
LAYER1
  6
CONTINUOUS
 62
     7
 66
     1
 70
     0
 40
0.0039
 41
0.0039
  0
VERTEX
  8
LAYER1
 10
0.9514
 20
7.4444
 30
0
 70
     0
  0
VERTEX
  8
LAYER1
 10
0.9918
 20
7.4356
 30
0
 70
     0
  0
VERTEX
  8
LAYER1
 10
1.0249
 20
7.4117
 30
0
 70
     0
  0
VERTEX
  8
LAYER1
 10
1.0473
 20
7.3764
 30
0
 70
     0
  0
VERTEX
  8
LAYER1
 10
1.0556
 20
7.3333
 30
0
 70
     0
  0
SEQEND
  0
POLYLINE
  8
LAYER1
  6
CONTINUOUS
 62
     7
 66
     1
 70
     0
 40
0.0039
 41
0.0039
  0
VERTEX
  8
LAYER1
 10
1.0556
 20
7.3333
 30
0
 70
     0
  0
VERTEX
  8
LAYER1
 10
1.0473
 20
7.2902
 30
0
 70
     0
  0
VERTEX
  8
LAYER1
 10
1.0249
 20
7.2549
 30
0
 70
     0
  0
VERTEX
  8
LAYER1
 10
0.9918
 20
7.231
 30
0
 70
     0
  0
VERTEX
  8
LAYER1
 10
0.9514
 20
7.2222
 30
0
 70
     0
  0
SEQEND
  0
POLYLINE
  8
LAYER1
  6
CONTINUOUS
 62
     7
 66
     1
 70
     0
 40
0.0039
 41
0.0039
  0
VERTEX
  8
LAYER1
 10
0.8472
 20
7.2917
 30
0
 70
     0
  0
VERTEX
  8
LAYER1
 10
0.8555
 20
7.3186
 30
0
 70
     0
  0
VERTEX
  8
LAYER1
 10
0.8779
 20
7.3407
 30
0
 70
     0
  0
VERTEX
  8
LAYER1
 10
0.911
 20
7.3556
 30
0
 70
     0
  0
VERTEX
  8
LAYER1
 10
0.9514
 20
7.3611
 30
0
 70
     0
  0
SEQEND
  0
POLYLINE
  8
LAYER1
  6
CONTINUOUS
 62
     7
 66
     1
 70
     0
 40
0.0039
 41
0.0039
  0
VERTEX
  8
LAYER1
 10
0.9514
 20
7.2222
 30
0
 70
     0
  0
VERTEX
  8
LAYER1
 10
0.911
 20
7.2277
 30
0
 70
     0
  0
VERTEX
  8
LAYER1
 10
0.8779
 20
7.2427
 30
0
 70
     0
  0
VERTEX
  8
LAYER1
 10
0.8555
 20
7.2647
 30
0
 70
     0
  0
VERTEX
  8
LAYER1
 10
0.8472
 20
7.2917
 30
0
 70
     0
  0
SEQEND
  0
ENDBLK
  8
LAYER1
  0
BLOCK
  8
LAYER1
  2
Group44
 70
     0
 10
0
 20
0
 30
0
  0
POLYLINE
  8
LAYER1
  6
CONTINUOUS
 62
     7
 66
     1
 70
     0
 40
0.0039
 41
0.0039
  0
VERTEX
  8
LAYER1
 10
0.9514
 20
7.3611
 30
0
 70
     0
  0
VERTEX
  8
LAYER1
 10
0.9918
 20
7.3523
 30
0
 70
     0
  0
VERTEX
  8
LAYER1
 10
1.0249
 20
7.3284
 30
0
 70
     0
  0
VERTEX
  8
LAYER1
 10
1.0473
 20
7.2931
 30
0
 70
     0
  0
VERTEX
  8
LAYER1
 10
1.0556
 20
7.25
 30
0
 70
     0
  0
SEQEND
  0
POLYLINE
  8
LAYER1
  6
CONTINUOUS
 62
     7
 66
     1
 70
     0
 40
0.0039
 41
0.0039
  0
VERTEX
  8
LAYER1
 10
1.0556
 20
7.25
 30
0
 70
     0
  0
VERTEX
  8
LAYER1
 10
1.0473
 20
7.2069
 30
0
 70
     0
  0
VERTEX
  8
LAYER1
 10
1.0249
 20
7.1716
 30
0
 70
     0
  0
VERTEX
  8
LAYER1
 10
0.9918
 20
7.1477
 30
0
 70
     0
  0
VERTEX
  8
LAYER1
 10
0.9514
 20
7.1389
 30
0
 70
     0
  0
SEQEND
  0
POLYLINE
  8
LAYER1
  6
CONTINUOUS
 62
     7
 66
     1
 70
     0
 40
0.0039
 41
0.0039
  0
VERTEX
  8
LAYER1
 10
0.8472
 20
7.2222
 30
0
 70
     0
  0
VERTEX
  8
LAYER1
 10
0.8555
 20
7.2491
 30
0
 70
     0
  0
VERTEX
  8
LAYER1
 10
0.8779
 20
7.2712
 30
0
 70
     0
  0
VERTEX
  8
LAYER1
 10
0.911
 20
7.2862
 30
0
 70
     0
  0
VERTEX
  8
LAYER1
 10
0.9514
 20
7.2917
 30
0
 70
     0
  0
SEQEND
  0
POLYLINE
  8
LAYER1
  6
CONTINUOUS
 62
     7
 66
     1
 70
     0
 40
0.0039
 41
0.0039
  0
VERTEX
  8
LAYER1
 10
0.9514
 20
7.1528
 30
0
 70
     0
  0
VERTEX
  8
LAYER1
 10
0.911
 20
7.1583
 30
0
 70
     0
  0
VERTEX
  8
LAYER1
 10
0.8779
 20
7.1732
 30
0
 70
     0
  0
VERTEX
  8
LAYER1
 10
0.8555
 20
7.1953
 30
0
 70
     0
  0
VERTEX
  8
LAYER1
 10
0.8472
 20
7.2222
 30
0
 70
     0
  0
SEQEND
  0
ENDBLK
  8
LAYER1
  0
BLOCK
  8
LAYER1
  2
Group45
 70
     0
 10
0
 20
0
 30
0
  0
POLYLINE
  8
LAYER1
  6
CONTINUOUS
 62
     7
 66
     1
 70
     0
 40
0.0039
 41
0.0039
  0
VERTEX
  8
LAYER1
 10
0.9514
 20
7.2917
 30
0
 70
     0
  0
VERTEX
  8
LAYER1
 10
0.9918
 20
7.2829
 30
0
 70
     0
  0
VERTEX
  8
LAYER1
 10
1.0249
 20
7.259
 30
0
 70
     0
  0
VERTEX
  8
LAYER1
 10
1.0473
 20
7.2236
 30
0
 70
     0
  0
VERTEX
  8
LAYER1
 10
1.0556
 20
7.1806
 30
0
 70
     0
  0
SEQEND
  0
POLYLINE
  8
LAYER1
  6
CONTINUOUS
 62
     7
 66
     1
 70
     0
 40
0.0039
 41
0.0039
  0
VERTEX
  8
LAYER1
 10
1.0556
 20
7.1806
 30
0
 70
     0
  0
VERTEX
  8
LAYER1
 10
1.0473
 20
7.1375
 30
0
 70
     0
  0
VERTEX
  8
LAYER1
 10
1.0249
 20
7.1021
 30
0
 70
     0
  0
VERTEX
  8
LAYER1
 10
0.9918
 20
7.0782
 30
0
 70
     0
  0
VERTEX
  8
LAYER1
 10
0.9514
 20
7.0694
 30
0
 70
     0
  0
SEQEND
  0
POLYLINE
  8
LAYER1
  6
CONTINUOUS
 62
     7
 66
     1
 70
     0
 40
0.0039
 41
0.0039
  0
VERTEX
  8
LAYER1
 10
0.8472
 20
7.1389
 30
0
 70
     0
  0
VERTEX
  8
LAYER1
 10
0.8555
 20
7.1658
 30
0
 70
     0
  0
VERTEX
  8
LAYER1
 10
0.8779
 20
7.1879
 30
0
 70
     0
  0
VERTEX
  8
LAYER1
 10
0.911
 20
7.2028
 30
0
 70
     0
  0
VERTEX
  8
LAYER1
 10
0.9514
 20
7.2083
 30
0
 70
     0
  0
SEQEND
  0
POLYLINE
  8
LAYER1
  6
CONTINUOUS
 62
     7
 66
     1
 70
     0
 40
0.0039
 41
0.0039
  0
VERTEX
  8
LAYER1
 10
0.9514
 20
7.0694
 30
0
 70
     0
  0
VERTEX
  8
LAYER1
 10
0.911
 20
7.0749
 30
0
 70
     0
  0
VERTEX
  8
LAYER1
 10
0.8779
 20
7.0899
 30
0
 70
     0
  0
VERTEX
  8
LAYER1
 10
0.8555
 20
7.112
 30
0
 70
     0
  0
VERTEX
  8
LAYER1
 10
0.8472
 20
7.1389
 30
0
 70
     0
  0
SEQEND
  0
ENDBLK
  8
LAYER1
  0
BLOCK
  8
LAYER1
  2
Group46
 70
     0
 10
0
 20
0
 30
0
  0
INSERT
  8
LAYER1
  2
Group42
 10
0
 20
0
 30
0
  0
INSERT
  8
LAYER1
  2
Group43
 10
0
 20
0
 30
0
  0
INSERT
  8
LAYER1
  2
Group44
 10
0
 20
0
 30
0
  0
INSERT
  8
LAYER1
  2
Group45
 10
0
 20
0
 30
0
  0
ENDBLK
  8
LAYER1
  0
BLOCK
  8
LAYER1
  2
Group47
 70
     0
 10
0
 20
0
 30
0
  0
CIRCLE
  8
LAYER1
 10
1.1944
 20
7.5972
 30
0
 40
0.0556
  0
CIRCLE
  8
LAYER1
 10
1.1944
 20
7.5972
 30
0
 40
0.0556
  0
LINE
  8
LAYER1
  6
CONTINUOUS
 62
     7
 10
0.6806
 20
7.5
 30
0
 11
1.2361
 21
7.5556
 31
0
  0
CIRCLE
  8
LAYER1
 10
0.6944
 20
7.5
 30
0
 40
0.0556
  0
CIRCLE
  8
LAYER1
 10
0.6944
 20
7.5
 30
0
 40
0.0556
  0
INSERT
  8
LAYER1
  2
Group46
 10
0
 20
0
 30
0
  0
ENDBLK
  8
LAYER1
  0
BLOCK
  8
LAYER1
  2
Group48
 70
     0
 10
0
 20
0
 30
0
  0
INSERT
  8
LAYER1
  2
Group47
 10
0
 20
0
 30
0
  0
ENDBLK
  8
LAYER1
  0
BLOCK
  8
LAYER1
  2
Group49
 70
     0
 10
0
 20
0
 30
0
  0
CIRCLE
  8
LAYER1
 10
1.1944
 20
6.0139
 30
0
 40
0.0556
  0
CIRCLE
  8
LAYER1
 10
1.1944
 20
6.0139
 30
0
 40
0.0556
  0
CIRCLE
  8
LAYER1
 10
1.1944
 20
6.2083
 30
0
 40
0.0556
  0
CIRCLE
  8
LAYER1
 10
1.1944
 20
6.2083
 30
0
 40
0.0556
  0
LINE
  8
LAYER1
  6
CONTINUOUS
 62
     7
 10
0.7917
 20
6.1111
 30
0
 11
1.2361
 21
6.1667
 31
0
  0
CIRCLE
  8
LAYER1
 10
0.7917
 20
6.1111
 30
0
 40
0.0556
  0
CIRCLE
  8
LAYER1
 10
0.7917
 20
6.1111
 30
0
 40
0.0556
  0
ENDBLK
  8
LAYER1
  0
BLOCK
  8
LAYER1
  2
Group50
 70
     0
 10
0
 20
0
 30
0
  0
POLYLINE
  8
LAYER1
  6
CONTINUOUS
 62
     7
 66
     1
 70
     0
 40
0.0039
 41
0.0039
  0
VERTEX
  8
LAYER1
 10
0.9931
 20
4.875
 30
0
 70
     0
  0
VERTEX
  8
LAYER1
 10
1.0334
 20
4.8662
 30
0
 70
     0
  0
VERTEX
  8
LAYER1
 10
1.0666
 20
4.8423
 30
0
 70
     0
  0
VERTEX
  8
LAYER1
 10
1.089
 20
4.807
 30
0
 70
     0
  0
VERTEX
  8
LAYER1
 10
1.0972
 20
4.7639
 30
0
 70
     0
  0
SEQEND
  0
POLYLINE
  8
LAYER1
  6
CONTINUOUS
 62
     7
 66
     1
 70
     0
 40
0.0039
 41
0.0039
  0
VERTEX
  8
LAYER1
 10
1.0972
 20
4.7639
 30
0
 70
     0
  0
VERTEX
  8
LAYER1
 10
1.089
 20
4.7208
 30
0
 70
     0
  0
VERTEX
  8
LAYER1
 10
1.0666
 20
4.6855
 30
0
 70
     0
  0
VERTEX
  8
LAYER1
 10
1.0334
 20
4.6616
 30
0
 70
     0
  0
VERTEX
  8
LAYER1
 10
0.9931
 20
4.6528
 30
0
 70
     0
  0
SEQEND
  0
POLYLINE
  8
LAYER1
  6
CONTINUOUS
 62
     7
 66
     1
 70
     0
 40
0.0039
 41
0.0039
  0
VERTEX
  8
LAYER1
 10
0.8889
 20
4.7361
 30
0
 70
     0
  0
VERTEX
  8
LAYER1
 10
0.8971
 20
4.763
 30
0
 70
     0
  0
VERTEX
  8
LAYER1
 10
0.9195
 20
4.7851
 30
0
 70
     0
  0
VERTEX
  8
LAYER1
 10
0.9527
 20
4.8001
 30
0
 70
     0
  0
VERTEX
  8
LAYER1
 10
0.9931
 20
4.8056
 30
0
 70
     0
  0
SEQEND
  0
POLYLINE
  8
LAYER1
  6
CONTINUOUS
 62
     7
 66
     1
 70
     0
 40
0.0039
 41
0.0039
  0
VERTEX
  8
LAYER1
 10
0.9931
 20
4.6667
 30
0
 70
     0
  0
VERTEX
  8
LAYER1
 10
0.9527
 20
4.6722
 30
0
 70
     0
  0
VERTEX
  8
LAYER1
 10
0.9195
 20
4.6871
 30
0
 70
     0
  0
VERTEX
  8
LAYER1
 10
0.8971
 20
4.7092
 30
0
 70
     0
  0
VERTEX
  8
LAYER1
 10
0.8889
 20
4.7361
 30
0
 70
     0
  0
SEQEND
  0
ENDBLK
  8
LAYER1
  0
BLOCK
  8
LAYER1
  2
Group51
 70
     0
 10
0
 20
0
 30
0
  0
POLYLINE
  8
LAYER1
  6
CONTINUOUS
 62
     7
 66
     1
 70
     0
 40
0.0039
 41
0.0039
  0
VERTEX
  8
LAYER1
 10
0.9931
 20
4.8056
 30
0
 70
     0
  0
VERTEX
  8
LAYER1
 10
1.0334
 20
4.7968
 30
0
 70
     0
  0
VERTEX
  8
LAYER1
 10
1.0666
 20
4.7729
 30
0
 70
     0
  0
VERTEX
  8
LAYER1
 10
1.089
 20
4.7375
 30
0
 70
     0
  0
VERTEX
  8
LAYER1
 10
1.0972
 20
4.6944
 30
0
 70
     0
  0
SEQEND
  0
POLYLINE
  8
LAYER1
  6
CONTINUOUS
 62
     7
 66
     1
 70
     0
 40
0.0039
 41
0.0039
  0
VERTEX
  8
LAYER1
 10
1.0972
 20
4.6944
 30
0
 70
     0
  0
VERTEX
  8
LAYER1
 10
1.089
 20
4.6514
 30
0
 70
     0
  0
VERTEX
  8
LAYER1
 10
1.0666
 20
4.616
 30
0
 70
     0
  0
VERTEX
  8
LAYER1
 10
1.0334
 20
4.5921
 30
0
 70
     0
  0
VERTEX
  8
LAYER1
 10
0.9931
 20
4.5833
 30
0
 70
     0
  0
SEQEND
  0
POLYLINE
  8
LAYER1
  6
CONTINUOUS
 62
     7
 66
     1
 70
     0
 40
0.0039
 41
0.0039
  0
VERTEX
  8
LAYER1
 10
0.8889
 20
4.6667
 30
0
 70
     0
  0
VERTEX
  8
LAYER1
 10
0.8971
 20
4.6936
 30
0
 70
     0
  0
VERTEX
  8
LAYER1
 10
0.9195
 20
4.7157
 30
0
 70
     0
  0
VERTEX
  8
LAYER1
 10
0.9527
 20
4.7306
 30
0
 70
     0
  0
VERTEX
  8
LAYER1
 10
0.9931
 20
4.7361
 30
0
 70
     0
  0
SEQEND
  0
POLYLINE
  8
LAYER1
  6
CONTINUOUS
 62
     7
 66
     1
 70
     0
 40
0.0039
 41
0.0039
  0
VERTEX
  8
LAYER1
 10
0.9931
 20
4.5972
 30
0
 70
     0
  0
VERTEX
  8
LAYER1
 10
0.9527
 20
4.6027
 30
0
 70
     0
  0
VERTEX
  8
LAYER1
 10
0.9195
 20
4.6177
 30
0
 70
     0
  0
VERTEX
  8
LAYER1
 10
0.8971
 20
4.6397
 30
0
 70
     0
  0
VERTEX
  8
LAYER1
 10
0.8889
 20
4.6667
 30
0
 70
     0
  0
SEQEND
  0
ENDBLK
  8
LAYER1
  0
BLOCK
  8
LAYER1
  2
Group52
 70
     0
 10
0
 20
0
 30
0
  0
POLYLINE
  8
LAYER1
  6
CONTINUOUS
 62
     7
 66
     1
 70
     0
 40
0.0039
 41
0.0039
  0
VERTEX
  8
LAYER1
 10
0.9931
 20
4.7222
 30
0
 70
     0
  0
VERTEX
  8
LAYER1
 10
1.0334
 20
4.7134
 30
0
 70
     0
  0
VERTEX
  8
LAYER1
 10
1.0666
 20
4.6895
 30
0
 70
     0
  0
VERTEX
  8
LAYER1
 10
1.089
 20
4.6542
 30
0
 70
     0
  0
VERTEX
  8
LAYER1
 10
1.0972
 20
4.6111
 30
0
 70
     0
  0
SEQEND
  0
POLYLINE
  8
LAYER1
  6
CONTINUOUS
 62
     7
 66
     1
 70
     0
 40
0.0039
 41
0.0039
  0
VERTEX
  8
LAYER1
 10
1.0972
 20
4.6111
 30
0
 70
     0
  0
VERTEX
  8
LAYER1
 10
1.089
 20
4.568
 30
0
 70
     0
  0
VERTEX
  8
LAYER1
 10
1.0666
 20
4.5327
 30
0
 70
     0
  0
VERTEX
  8
LAYER1
 10
1.0334
 20
4.5088
 30
0
 70
     0
  0
VERTEX
  8
LAYER1
 10
0.9931
 20
4.5
 30
0
 70
     0
  0
SEQEND
  0
POLYLINE
  8
LAYER1
  6
CONTINUOUS
 62
     7
 66
     1
 70
     0
 40
0.0039
 41
0.0039
  0
VERTEX
  8
LAYER1
 10
0.8889
 20
4.5833
 30
0
 70
     0
  0
VERTEX
  8
LAYER1
 10
0.8971
 20
4.6102
 30
0
 70
     0
  0
VERTEX
  8
LAYER1
 10
0.9195
 20
4.6323
 30
0
 70
     0
  0
VERTEX
  8
LAYER1
 10
0.9527
 20
4.6473
 30
0
 70
     0
  0
VERTEX
  8
LAYER1
 10
0.9931
 20
4.6528
 30
0
 70
     0
  0
SEQEND
  0
POLYLINE
  8
LAYER1
  6
CONTINUOUS
 62
     7
 66
     1
 70
     0
 40
0.0039
 41
0.0039
  0
VERTEX
  8
LAYER1
 10
0.9931
 20
4.5139
 30
0
 70
     0
  0
VERTEX
  8
LAYER1
 10
0.9527
 20
4.5194
 30
0
 70
     0
  0
VERTEX
  8
LAYER1
 10
0.9195
 20
4.5343
 30
0
 70
     0
  0
VERTEX
  8
LAYER1
 10
0.8971
 20
4.5564
 30
0
 70
     0
  0
VERTEX
  8
LAYER1
 10
0.8889
 20
4.5833
 30
0
 70
     0
  0
SEQEND
  0
ENDBLK
  8
LAYER1
  0
BLOCK
  8
LAYER1
  2
Group53
 70
     0
 10
0
 20
0
 30
0
  0
POLYLINE
  8
LAYER1
  6
CONTINUOUS
 62
     7
 66
     1
 70
     0
 40
0.0039
 41
0.0039
  0
VERTEX
  8
LAYER1
 10
0.9931
 20
4.6528
 30
0
 70
     0
  0
VERTEX
  8
LAYER1
 10
1.0334
 20
4.644
 30
0
 70
     0
  0
VERTEX
  8
LAYER1
 10
1.0666
 20
4.6201
 30
0
 70
     0
  0
VERTEX
  8
LAYER1
 10
1.089
 20
4.5847
 30
0
 70
     0
  0
VERTEX
  8
LAYER1
 10
1.0972
 20
4.5417
 30
0
 70
     0
  0
SEQEND
  0
POLYLINE
  8
LAYER1
  6
CONTINUOUS
 62
     7
 66
     1
 70
     0
 40
0.0039
 41
0.0039
  0
VERTEX
  8
LAYER1
 10
1.0972
 20
4.5417
 30
0
 70
     0
  0
VERTEX
  8
LAYER1
 10
1.089
 20
4.4986
 30
0
 70
     0
  0
VERTEX
  8
LAYER1
 10
1.0666
 20
4.4633
 30
0
 70
     0
  0
VERTEX
  8
LAYER1
 10
1.0334
 20
4.4393
 30
0
 70
     0
  0
VERTEX
  8
LAYER1
 10
0.9931
 20
4.4306
 30
0
 70
     0
  0
SEQEND
  0
POLYLINE
  8
LAYER1
  6
CONTINUOUS
 62
     7
 66
     1
 70
     0
 40
0.0039
 41
0.0039
  0
VERTEX
  8
LAYER1
 10
0.8889
 20
4.5139
 30
0
 70
     0
  0
VERTEX
  8
LAYER1
 10
0.8971
 20
4.5408
 30
0
 70
     0
  0
VERTEX
  8
LAYER1
 10
0.9195
 20
4.5629
 30
0
 70
     0
  0
VERTEX
  8
LAYER1
 10
0.9527
 20
4.5778
 30
0
 70
     0
  0
VERTEX
  8
LAYER1
 10
0.9931
 20
4.5833
 30
0
 70
     0
  0
SEQEND
  0
POLYLINE
  8
LAYER1
  6
CONTINUOUS
 62
     7
 66
     1
 70
     0
 40
0.0039
 41
0.0039
  0
VERTEX
  8
LAYER1
 10
0.9931
 20
4.4444
 30
0
 70
     0
  0
VERTEX
  8
LAYER1
 10
0.9527
 20
4.4499
 30
0
 70
     0
  0
VERTEX
  8
LAYER1
 10
0.9195
 20
4.4649
 30
0
 70
     0
  0
VERTEX
  8
LAYER1
 10
0.8971
 20
4.487
 30
0
 70
     0
  0
VERTEX
  8
LAYER1
 10
0.8889
 20
4.5139
 30
0
 70
     0
  0
SEQEND
  0
ENDBLK
  8
LAYER1
  0
BLOCK
  8
LAYER1
  2
Group54
 70
     0
 10
0
 20
0
 30
0
  0
INSERT
  8
LAYER1
  2
Group50
 10
0
 20
0
 30
0
  0
INSERT
  8
LAYER1
  2
Group51
 10
0
 20
0
 30
0
  0
INSERT
  8
LAYER1
  2
Group52
 10
0
 20
0
 30
0
  0
INSERT
  8
LAYER1
  2
Group53
 10
0
 20
0
 30
0
  0
ENDBLK
  8
LAYER1
  0
BLOCK
  8
LAYER1
  2
Group55
 70
     0
 10
0
 20
0
 30
0
  0
LINE
  8
LAYER1
  6
CONTINUOUS
 62
     7
 10
0.6806
 20
4.8889
 30
0
 11
1.3333
 21
4.9444
 31
0
  0
CIRCLE
  8
LAYER1
 10
1.2917
 20
4.7917
 30
0
 40
0.0556
  0
CIRCLE
  8
LAYER1
 10
1.2917
 20
4.7917
 30
0
 40
0.0556
  0
CIRCLE
  8
LAYER1
 10
1.2917
 20
4.9861
 30
0
 40
0.0556
  0
CIRCLE
  8
LAYER1
 10
1.2917
 20
4.9861
 30
0
 40
0.0556
  0
CIRCLE
  8
LAYER1
 10
0.6944
 20
4.8889
 30
0
 40
0.0556
  0
CIRCLE
  8
LAYER1
 10
0.6944
 20
4.8889
 30
0
 40
0.0556
  0
INSERT
  8
LAYER1
  2
Group54
 10
0
 20
0
 30
0
  0
ENDBLK
  8
LAYER1
  0
BLOCK
  8
LAYER1
  2
Group56
 70
     0
 10
0
 20
0
 30
0
  0
INSERT
  8
LAYER1
  2
Group55
 10
0
 20
0
 30
0
  0
ENDBLK
  8
LAYER1
  0
BLOCK
  8
LAYER1
  2
Group57
 70
     0
 10
0
 20
0
 30
0
  0
LINE
  8
LAYER1
  6
CONTINUOUS
 62
     7
 10
1.0278
 20
3.4861
 30
0
 11
1.0278
 21
3.4583
 31
0
  0
LINE
  8
LAYER1
  6
CONTINUOUS
 62
     7
 10
1.0278
 20
3.4167
 30
0
 11
1.0278
 21
3.3889
 31
0
  0
LINE
  8
LAYER1
  6
CONTINUOUS
 62
     7
 10
1.0278
 20
3.3472
 30
0
 11
1.0278
 21
3.3194
 31
0
  0
LINE
  8
LAYER1
  6
CONTINUOUS
 62
     7
 10
1.0278
 20
3.2778
 30
0
 11
1.0278
 21
3.25
 31
0
  0
LINE
  8
LAYER1
  6
CONTINUOUS
 62
     7
 10
1.0278
 20
3.2083
 30
0
 11
1.0278
 21
3.1806
 31
0
  0
LINE
  8
LAYER1
  6
CONTINUOUS
 62
     7
 10
1.0278
 20
3.1389
 30
0
 11
1.0278
 21
3.1111
 31
0
  0
ENDBLK
  8
LAYER1
  0
BLOCK
  8
LAYER1
  2
Group58
 70
     0
 10
0
 20
0
 30
0
  0
LINE
  8
LAYER1
  6
DASH1
 62
     7
 10
1.0278
 20
3.4861
 30
0
 11
1.0278
 21
2.9861
 31
0
  0
INSERT
  8
LAYER1
  2
Group57
 10
0
 20
0
 30
0
  0
LINE
  8
LAYER1
  6
CONTINUOUS
 62
     7
 10
1.0278
 20
3.0694
 30
0
 11
1.0278
 21
3.0417
 31
0
  0
LINE
  8
LAYER1
  6
CONTINUOUS
 62
     7
 10
0.7917
 20
3.4444
 30
0
 11
1.3194
 21
3.5278
 31
0
  0
ENDBLK
  8
LAYER1
  0
BLOCK
  8
LAYER1
  2
Group59
 70
     0
 10
0
 20
0
 30
0
  0
CIRCLE
  8
LAYER1
 10
1.2917
 20
2.8333
 30
0
 40
0.0556
  0
CIRCLE
  8
LAYER1
 10
1.2917
 20
2.8333
 30
0
 40
0.0556
  0
CIRCLE
  8
LAYER1
 10
1.2917
 20
3.3333
 30
0
 40
0.0556
  0
CIRCLE
  8
LAYER1
 10
1.2917
 20
3.3333
 30
0
 40
0.0556
  0
INSERT
  8
LAYER1
  2
Group58
 10
0
 20
0
 30
0
  0
LINE
  8
LAYER1
  6
CONTINUOUS
 62
     7
 10
0.7917
 20
2.9444
 30
0
 11
1.3194
 21
3.0278
 31
0
  0
CIRCLE
  8
LAYER1
 10
0.7917
 20
2.9444
 30
0
 40
0.0556
  0
CIRCLE
  8
LAYER1
 10
0.7917
 20
2.9444
 30
0
 40
0.0556
  0
CIRCLE
  8
LAYER1
 10
0.7917
 20
3.4444
 30
0
 40
0.0556
  0
CIRCLE
  8
LAYER1
 10
0.7917
 20
3.4444
 30
0
 40
0.0556
  0
ENDBLK
  8
LAYER1
  0
BLOCK
  8
LAYER1
  2
Group60
 70
     0
 10
0
 20
0
 30
0
  0
INSERT
  8
LAYER1
  2
Group59
 10
0
 20
0
 30
0
  0
ENDBLK
  8
LAYER1
  0
BLOCK
  8
LAYER1
  2
Group61
 70
     0
 10
0
 20
0
 30
0
  0
SOLID
  8
LAYER1
 62
     7
 10
1.2083
 20
1.9583
 30
0
 11
1.1944
 21
1.875
 31
0
 12
1.1528
 22
1.9028
 32
0
 13
1.1806
 23
1.8889
 33
0
  0
ENDBLK
  8
LAYER1
  0
BLOCK
  8
LAYER1
  2
Group62
 70
     0
 10
0
 20
0
 30
0
  0
INSERT
  8
LAYER1
  2
Group61
 10
0
 20
0
 30
0
  0
LINE
  8
LAYER1
  6
CONTINUOUS
 62
     7
 10
0.9861
 20
1.5556
 30
0
 11
1.1806
 21
1.8889
 31
0
  0
CIRCLE
  8
LAYER1
 10
0.7917
 20
3.4444
 30
0
 40
0.0556
  0
CIRCLE
  8
LAYER1
 10
0.7917
 20
3.4444
 30
0
 40
0.0556
  0
CIRCLE
  8
LAYER1
 10
0.7917
 20
3.4444
 30
0
 40
0.0556
  0
CIRCLE
  8
LAYER1
 10
0.7917
 20
3.4444
 30
0
 40
0.0556
  0
CIRCLE
  8
LAYER1
 10
0.7917
 20
3.4444
 30
0
 40
0.0556
  0
CIRCLE
  8
LAYER1
 10
0.7917
 20
3.4444
 30
0
 40
0.0556
  0
CIRCLE
  8
LAYER1
 10
0.7917
 20
3.4444
 30
0
 40
0.0556
  0
CIRCLE
  8
LAYER1
 10
0.7917
 20
3.4444
 30
0
 40
0.0556
  0
CIRCLE
  8
LAYER1
 10
0.7917
 20
3.4444
 30
0
 40
0.0556
  0
CIRCLE
  8
LAYER1
 10
0.7917
 20
3.4444
 30
0
 40
0.0556
  0
CIRCLE
  8
LAYER1
 10
0.7917
 20
3.4444
 30
0
 40
0.0556
  0
CIRCLE
  8
LAYER1
 10
0.7917
 20
3.4444
 30
0
 40
0.0556
  0
CIRCLE
  8
LAYER1
 10
0.7917
 20
3.4444
 30
0
 40
0.0556
  0
CIRCLE
  8
LAYER1
 10
0.7917
 20
3.4444
 30
0
 40
0.0556
  0
CIRCLE
  8
LAYER1
 10
0.7917
 20
3.4444
 30
0
 40
0.0556
  0
CIRCLE
  8
LAYER1
 10
0.7917
 20
3.4444
 30
0
 40
0.0556
  0
CIRCLE
  8
LAYER1
 10
0.7917
 20
3.4444
 30
0
 40
0.0556
  0
CIRCLE
  8
LAYER1
 10
0.7917
 20
3.4444
 30
0
 40
0.0556
  0
CIRCLE
  8
LAYER1
 10
0.7917
 20
3.4444
 30
0
 40
0.0556
  0
CIRCLE
  8
LAYER1
 10
0.7917
 20
3.4444
 30
0
 40
0.0556
  0
CIRCLE
  8
LAYER1
 10
0.7917
 20
3.4444
 30
0
 40
0.0556
  0
CIRCLE
  8
LAYER1
 10
0.7917
 20
3.4444
 30
0
 40
0.0556
  0
CIRCLE
  8
LAYER1
 10
0.7917
 20
3.4444
 30
0
 40
0.0556
  0
CIRCLE
  8
LAYER1
 10
0.7917
 20
3.4444
 30
0
 40
0.0556
  0
CIRCLE
  8
LAYER1
 10
0.7917
 20
3.4444
 30
0
 40
0.0556
  0
CIRCLE
  8
LAYER1
 10
0.7917
 20
3.4444
 30
0
 40
0.0556
  0
ENDBLK
  8
LAYER1
  0
BLOCK
  8
LAYER1
  2
Group63
 70
     0
 10
0
 20
0
 30
0
  0
POLYLINE
  8
LAYER1
  6
CONTINUOUS
 62
     7
 66
     1
 70
     0
 40
0.0039
 41
0.0039
  0
VERTEX
  8
LAYER1
 10
3.1875
 20
9.6389
 30
0
 70
     0
  0
VERTEX
  8
LAYER1
 10
3.2279
 20
9.6301
 30
0
 70
     0
  0
VERTEX
  8
LAYER1
 10
3.261
 20
9.6062
 30
0
 70
     0
  0
VERTEX
  8
LAYER1
 10
3.2834
 20
9.5708
 30
0
 70
     0
  0
VERTEX
  8
LAYER1
 10
3.2917
 20
9.5278
 30
0
 70
     0
  0
SEQEND
  0
POLYLINE
  8
LAYER1
  6
CONTINUOUS
 62
     7
 66
     1
 70
     0
 40
0.0039
 41
0.0039
  0
VERTEX
  8
LAYER1
 10
3.2917
 20
9.5278
 30
0
 70
     0
  0
VERTEX
  8
LAYER1
 10
3.2834
 20
9.4847
 30
0
 70
     0
  0
VERTEX
  8
LAYER1
 10
3.261
 20
9.4494
 30
0
 70
     0
  0
VERTEX
  8
LAYER1
 10
3.2279
 20
9.4255
 30
0
 70
     0
  0
VERTEX
  8
LAYER1
 10
3.1875
 20
9.4167
 30
0
 70
     0
  0
SEQEND
  0
POLYLINE
  8
LAYER1
  6
CONTINUOUS
 62
     7
 66
     1
 70
     0
 40
0.0039
 41
0.0039
  0
VERTEX
  8
LAYER1
 10
3.0833
 20
9.5
 30
0
 70
     0
  0
VERTEX
  8
LAYER1
 10
3.0916
 20
9.5269
 30
0
 70
     0
  0
VERTEX
  8
LAYER1
 10
3.114
 20
9.549
 30
0
 70
     0
  0
VERTEX
  8
LAYER1
 10
3.1471
 20
9.5639
 30
0
 70
     0
  0
VERTEX
  8
LAYER1
 10
3.1875
 20
9.5694
 30
0
 70
     0
  0
SEQEND
  0
POLYLINE
  8
LAYER1
  6
CONTINUOUS
 62
     7
 66
     1
 70
     0
 40
0.0039
 41
0.0039
  0
VERTEX
  8
LAYER1
 10
3.1875
 20
9.4306
 30
0
 70
     0
  0
VERTEX
  8
LAYER1
 10
3.1471
 20
9.436
 30
0
 70
     0
  0
VERTEX
  8
LAYER1
 10
3.114
 20
9.451
 30
0
 70
     0
  0
VERTEX
  8
LAYER1
 10
3.0916
 20
9.4731
 30
0
 70
     0
  0
VERTEX
  8
LAYER1
 10
3.0833
 20
9.5
 30
0
 70
     0
  0
SEQEND
  0
ENDBLK
  8
LAYER1
  0
BLOCK
  8
LAYER1
  2
Group64
 70
     0
 10
0
 20
0
 30
0
  0
POLYLINE
  8
LAYER1
  6
CONTINUOUS
 62
     7
 66
     1
 70
     0
 40
0.0039
 41
0.0039
  0
VERTEX
  8
LAYER1
 10
3.1875
 20
9.5694
 30
0
 70
     0
  0
VERTEX
  8
LAYER1
 10
3.2279
 20
9.5606
 30
0
 70
     0
  0
VERTEX
  8
LAYER1
 10
3.261
 20
9.5367
 30
0
 70
     0
  0
VERTEX
  8
LAYER1
 10
3.2834
 20
9.5014
 30
0
 70
     0
  0
VERTEX
  8
LAYER1
 10
3.2917
 20
9.4583
 30
0
 70
     0
  0
SEQEND
  0
POLYLINE
  8
LAYER1
  6
CONTINUOUS
 62
     7
 66
     1
 70
     0
 40
0.0039
 41
0.0039
  0
VERTEX
  8
LAYER1
 10
3.2917
 20
9.4583
 30
0
 70
     0
  0
VERTEX
  8
LAYER1
 10
3.2834
 20
9.4152
 30
0
 70
     0
  0
VERTEX
  8
LAYER1
 10
3.261
 20
9.3799
 30
0
 70
     0
  0
VERTEX
  8
LAYER1
 10
3.2279
 20
9.356
 30
0
 70
     0
  0
VERTEX
  8
LAYER1
 10
3.1875
 20
9.3472
 30
0
 70
     0
  0
SEQEND
  0
POLYLINE
  8
LAYER1
  6
CONTINUOUS
 62
     7
 66
     1
 70
     0
 40
0.0039
 41
0.0039
  0
VERTEX
  8
LAYER1
 10
3.0833
 20
9.4167
 30
0
 70
     0
  0
VERTEX
  8
LAYER1
 10
3.0916
 20
9.4436
 30
0
 70
     0
  0
VERTEX
  8
LAYER1
 10
3.114
 20
9.4657
 30
0
 70
     0
  0
VERTEX
  8
LAYER1
 10
3.1471
 20
9.4806
 30
0
 70
     0
  0
VERTEX
  8
LAYER1
 10
3.1875
 20
9.4861
 30
0
 70
     0
  0
SEQEND
  0
POLYLINE
  8
LAYER1
  6
CONTINUOUS
 62
     7
 66
     1
 70
     0
 40
0.0039
 41
0.0039
  0
VERTEX
  8
LAYER1
 10
3.1875
 20
9.3472
 30
0
 70
     0
  0
VERTEX
  8
LAYER1
 10
3.1471
 20
9.3527
 30
0
 70
     0
  0
VERTEX
  8
LAYER1
 10
3.114
 20
9.3677
 30
0
 70
     0
  0
VERTEX
  8
LAYER1
 10
3.0916
 20
9.3897
 30
0
 70
     0
  0
VERTEX
  8
LAYER1
 10
3.0833
 20
9.4167
 30
0
 70
     0
  0
SEQEND
  0
ENDBLK
  8
LAYER1
  0
BLOCK
  8
LAYER1
  2
Group65
 70
     0
 10
0
 20
0
 30
0
  0
POLYLINE
  8
LAYER1
  6
CONTINUOUS
 62
     7
 66
     1
 70
     0
 40
0.0039
 41
0.0039
  0
VERTEX
  8
LAYER1
 10
3.1875
 20
9.4861
 30
0
 70
     0
  0
VERTEX
  8
LAYER1
 10
3.2279
 20
9.4773
 30
0
 70
     0
  0
VERTEX
  8
LAYER1
 10
3.261
 20
9.4534
 30
0
 70
     0
  0
VERTEX
  8
LAYER1
 10
3.2834
 20
9.4181
 30
0
 70
     0
  0
VERTEX
  8
LAYER1
 10
3.2917
 20
9.375
 30
0
 70
     0
  0
SEQEND
  0
POLYLINE
  8
LAYER1
  6
CONTINUOUS
 62
     7
 66
     1
 70
     0
 40
0.0039
 41
0.0039
  0
VERTEX
  8
LAYER1
 10
3.2917
 20
9.375
 30
0
 70
     0
  0
VERTEX
  8
LAYER1
 10
3.2834
 20
9.3319
 30
0
 70
     0
  0
VERTEX
  8
LAYER1
 10
3.261
 20
9.2966
 30
0
 70
     0
  0
VERTEX
  8
LAYER1
 10
3.2279
 20
9.2727
 30
0
 70
     0
  0
VERTEX
  8
LAYER1
 10
3.1875
 20
9.2639
 30
0
 70
     0
  0
SEQEND
  0
POLYLINE
  8
LAYER1
  6
CONTINUOUS
 62
     7
 66
     1
 70
     0
 40
0.0039
 41
0.0039
  0
VERTEX
  8
LAYER1
 10
3.0833
 20
9.3472
 30
0
 70
     0
  0
VERTEX
  8
LAYER1
 10
3.0916
 20
9.3741
 30
0
 70
     0
  0
VERTEX
  8
LAYER1
 10
3.114
 20
9.3962
 30
0
 70
     0
  0
VERTEX
  8
LAYER1
 10
3.1471
 20
9.4112
 30
0
 70
     0
  0
VERTEX
  8
LAYER1
 10
3.1875
 20
9.4167
 30
0
 70
     0
  0
SEQEND
  0
POLYLINE
  8
LAYER1
  6
CONTINUOUS
 62
     7
 66
     1
 70
     0
 40
0.0039
 41
0.0039
  0
VERTEX
  8
LAYER1
 10
3.1875
 20
9.2778
 30
0
 70
     0
  0
VERTEX
  8
LAYER1
 10
3.1471
 20
9.2833
 30
0
 70
     0
  0
VERTEX
  8
LAYER1
 10
3.114
 20
9.2982
 30
0
 70
     0
  0
VERTEX
  8
LAYER1
 10
3.0916
 20
9.3203
 30
0
 70
     0
  0
VERTEX
  8
LAYER1
 10
3.0833
 20
9.3472
 30
0
 70
     0
  0
SEQEND
  0
ENDBLK
  8
LAYER1
  0
BLOCK
  8
LAYER1
  2
Group66
 70
     0
 10
0
 20
0
 30
0
  0
POLYLINE
  8
LAYER1
  6
CONTINUOUS
 62
     7
 66
     1
 70
     0
 40
0.0039
 41
0.0039
  0
VERTEX
  8
LAYER1
 10
3.1875
 20
9.4167
 30
0
 70
     0
  0
VERTEX
  8
LAYER1
 10
3.2279
 20
9.4079
 30
0
 70
     0
  0
VERTEX
  8
LAYER1
 10
3.261
 20
9.384
 30
0
 70
     0
  0
VERTEX
  8
LAYER1
 10
3.2834
 20
9.3486
 30
0
 70
     0
  0
VERTEX
  8
LAYER1
 10
3.2917
 20
9.3056
 30
0
 70
     0
  0
SEQEND
  0
POLYLINE
  8
LAYER1
  6
CONTINUOUS
 62
     7
 66
     1
 70
     0
 40
0.0039
 41
0.0039
  0
VERTEX
  8
LAYER1
 10
3.2917
 20
9.3056
 30
0
 70
     0
  0
VERTEX
  8
LAYER1
 10
3.2834
 20
9.2625
 30
0
 70
     0
  0
VERTEX
  8
LAYER1
 10
3.261
 20
9.2271
 30
0
 70
     0
  0
VERTEX
  8
LAYER1
 10
3.2279
 20
9.2032
 30
0
 70
     0
  0
VERTEX
  8
LAYER1
 10
3.1875
 20
9.1944
 30
0
 70
     0
  0
SEQEND
  0
POLYLINE
  8
LAYER1
  6
CONTINUOUS
 62
     7
 66
     1
 70
     0
 40
0.0039
 41
0.0039
  0
VERTEX
  8
LAYER1
 10
3.0833
 20
9.2639
 30
0
 70
     0
  0
VERTEX
  8
LAYER1
 10
3.0916
 20
9.2908
 30
0
 70
     0
  0
VERTEX
  8
LAYER1
 10
3.114
 20
9.3129
 30
0
 70
     0
  0
VERTEX
  8
LAYER1
 10
3.1471
 20
9.3278
 30
0
 70
     0
  0
VERTEX
  8
LAYER1
 10
3.1875
 20
9.3333
 30
0
 70
     0
  0
SEQEND
  0
POLYLINE
  8
LAYER1
  6
CONTINUOUS
 62
     7
 66
     1
 70
     0
 40
0.0039
 41
0.0039
  0
VERTEX
  8
LAYER1
 10
3.1875
 20
9.1944
 30
0
 70
     0
  0
VERTEX
  8
LAYER1
 10
3.1471
 20
9.1999
 30
0
 70
     0
  0
VERTEX
  8
LAYER1
 10
3.114
 20
9.2149
 30
0
 70
     0
  0
VERTEX
  8
LAYER1
 10
3.0916
 20
9.237
 30
0
 70
     0
  0
VERTEX
  8
LAYER1
 10
3.0833
 20
9.2639
 30
0
 70
     0
  0
SEQEND
  0
ENDBLK
  8
LAYER1
  0
BLOCK
  8
LAYER1
  2
Group67
 70
     0
 10
0
 20
0
 30
0
  0
INSERT
  8
LAYER1
  2
Group63
 10
0
 20
0
 30
0
  0
INSERT
  8
LAYER1
  2
Group64
 10
0
 20
0
 30
0
  0
INSERT
  8
LAYER1
  2
Group65
 10
0
 20
0
 30
0
  0
INSERT
  8
LAYER1
  2
Group66
 10
0
 20
0
 30
0
  0
ENDBLK
  8
LAYER1
  0
BLOCK
  8
LAYER1
  2
Group68
 70
     0
 10
0
 20
0
 30
0
  0
LINE
  8
LAYER1
  6
CONTINUOUS
 62
     7
 10
3.1806
 20
10.1667
 30
0
 11
3.1806
 21
10.125
 31
0
  0
LINE
  8
LAYER1
  6
CONTINUOUS
 62
     7
 10
3.1806
 20
10.0972
 30
0
 11
3.1806
 21
10.0556
 31
0
  0
LINE
  8
LAYER1
  6
CONTINUOUS
 62
     7
 10
3.1806
 20
10.0278
 30
0
 11
3.1806
 21
9.9861
 31
0
  0
LINE
  8
LAYER1
  6
CONTINUOUS
 62
     7
 10
3.1806
 20
9.9583
 30
0
 11
3.1806
 21
9.9167
 31
0
  0
LINE
  8
LAYER1
  6
CONTINUOUS
 62
     7
 10
3.1806
 20
9.8889
 30
0
 11
3.1806
 21
9.8472
 31
0
  0
LINE
  8
LAYER1
  6
CONTINUOUS
 62
     7
 10
3.1806
 20
9.8194
 30
0
 11
3.1806
 21
9.7778
 31
0
  0
LINE
  8
LAYER1
  6
CONTINUOUS
 62
     7
 10
3.1806
 20
9.75
 30
0
 11
3.1806
 21
9.7083
 31
0
  0
ENDBLK
  8
LAYER1
  0
BLOCK
  8
LAYER1
  2
Group69
 70
     0
 10
0
 20
0
 30
0
  0
LINE
  8
LAYER1
  6
CONTINUOUS
 62
     7
 10
2.9306
 20
9.5694
 30
0
 11
3.4306
 21
9.75
 31
0
  0
CIRCLE
  8
LAYER1
 10
2.9306
 20
9.5556
 30
0
 40
0.0556
  0
CIRCLE
  8
LAYER1
 10
2.9306
 20
9.5556
 30
0
 40
0.0556
  0
CIRCLE
  8
LAYER1
 10
3.4306
 20
9.5556
 30
0
 40
0.0556
  0
CIRCLE
  8
LAYER1
 10
3.4306
 20
9.5556
 30
0
 40
0.0556
  0
INSERT
  8
LAYER1
  2
Group67
 10
0
 20
0
 30
0
  0
LINE
  8
LAYER1
  6
CONTINUOUS
 62
     7
 10
2.9306
 20
10.0694
 30
0
 11
3.4306
 21
10.25
 31
0
  0
CIRCLE
  8
LAYER1
 10
2.9306
 20
10.0556
 30
0
 40
0.0556
  0
CIRCLE
  8
LAYER1
 10
2.9306
 20
10.0556
 30
0
 40
0.0556
  0
CIRCLE
  8
LAYER1
 10
3.4306
 20
10.0556
 30
0
 40
0.0556
  0
CIRCLE
  8
LAYER1
 10
3.4306
 20
10.0556
 30
0
 40
0.0556
  0
LINE
  8
LAYER1
  6
DASH1
 62
     7
 10
3.1806
 20
10.1667
 30
0
 11
3.1806
 21
9.6667
 31
0
  0
INSERT
  8
LAYER1
  2
Group68
 10
0
 20
0
 30
0
  0
ENDBLK
  8
LAYER1
  0
BLOCK
  8
LAYER1
  2
Group70
 70
     0
 10
0
 20
0
 30
0
  0
INSERT
  8
LAYER1
  2
Group69
 10
0
 20
0
 30
0
  0
ENDBLK
  8
LAYER1
  0
BLOCK
  8
LAYER1
  2
Group71
 70
     0
 10
0
 20
0
 30
0
  0
LINE
  8
LAYER1
  6
CONTINUOUS
 62
     7
 10
3.1806
 20
9.6806
 30
0
 11
3.1806
 21
9.6667
 31
0
  0
CIRCLE
  8
LAYER1
 10
3.4306
 20
7.875
 30
0
 40
0.0556
  0
CIRCLE
  8
LAYER1
 10
3.4306
 20
7.875
 30
0
 40
0.0556
  0
LINE
  8
LAYER1
  6
CONTINUOUS
 62
     7
 10
2.9306
 20
7.7778
 30
0
 11
3.4722
 21
7.8333
 31
0
  0
CIRCLE
  8
LAYER1
 10
2.9306
 20
7.7778
 30
0
 40
0.0556
  0
CIRCLE
  8
LAYER1
 10
2.9306
 20
7.7778
 30
0
 40
0.0556
  0
ENDBLK
  8
LAYER1
  0
BLOCK
  8
LAYER1
  2
Group72
 70
     0
 10
0
 20
0
 30
0
  0
POLYLINE
  8
LAYER1
  6
CONTINUOUS
 62
     7
 66
     1
 70
     0
 40
0.0039
 41
0.0039
  0
VERTEX
  8
LAYER1
 10
3.1875
 20
7.7917
 30
0
 70
     0
  0
VERTEX
  8
LAYER1
 10
3.2279
 20
7.7829
 30
0
 70
     0
  0
VERTEX
  8
LAYER1
 10
3.261
 20
7.759
 30
0
 70
     0
  0
VERTEX
  8
LAYER1
 10
3.2834
 20
7.7236
 30
0
 70
     0
  0
VERTEX
  8
LAYER1
 10
3.2917
 20
7.6806
 30
0
 70
     0
  0
SEQEND
  0
POLYLINE
  8
LAYER1
  6
CONTINUOUS
 62
     7
 66
     1
 70
     0
 40
0.0039
 41
0.0039
  0
VERTEX
  8
LAYER1
 10
3.2917
 20
7.6806
 30
0
 70
     0
  0
VERTEX
  8
LAYER1
 10
3.2834
 20
7.6375
 30
0
 70
     0
  0
VERTEX
  8
LAYER1
 10
3.261
 20
7.6021
 30
0
 70
     0
  0
VERTEX
  8
LAYER1
 10
3.2279
 20
7.5782
 30
0
 70
     0
  0
VERTEX
  8
LAYER1
 10
3.1875
 20
7.5694
 30
0
 70
     0
  0
SEQEND
  0
POLYLINE
  8
LAYER1
  6
CONTINUOUS
 62
     7
 66
     1
 70
     0
 40
0.0039
 41
0.0039
  0
VERTEX
  8
LAYER1
 10
3.0833
 20
7.6528
 30
0
 70
     0
  0
VERTEX
  8
LAYER1
 10
3.0916
 20
7.6797
 30
0
 70
     0
  0
VERTEX
  8
LAYER1
 10
3.114
 20
7.7018
 30
0
 70
     0
  0
VERTEX
  8
LAYER1
 10
3.1471
 20
7.7167
 30
0
 70
     0
  0
VERTEX
  8
LAYER1
 10
3.1875
 20
7.7222
 30
0
 70
     0
  0
SEQEND
  0
POLYLINE
  8
LAYER1
  6
CONTINUOUS
 62
     7
 66
     1
 70
     0
 40
0.0039
 41
0.0039
  0
VERTEX
  8
LAYER1
 10
3.1875
 20
7.5833
 30
0
 70
     0
  0
VERTEX
  8
LAYER1
 10
3.1471
 20
7.5888
 30
0
 70
     0
  0
VERTEX
  8
LAYER1
 10
3.114
 20
7.6038
 30
0
 70
     0
  0
VERTEX
  8
LAYER1
 10
3.0916
 20
7.6259
 30
0
 70
     0
  0
VERTEX
  8
LAYER1
 10
3.0833
 20
7.6528
 30
0
 70
     0
  0
SEQEND
  0
ENDBLK
  8
LAYER1
  0
BLOCK
  8
LAYER1
  2
Group73
 70
     0
 10
0
 20
0
 30
0
  0
POLYLINE
  8
LAYER1
  6
CONTINUOUS
 62
     7
 66
     1
 70
     0
 40
0.0039
 41
0.0039
  0
VERTEX
  8
LAYER1
 10
3.1875
 20
7.7222
 30
0
 70
     0
  0
VERTEX
  8
LAYER1
 10
3.2279
 20
7.7134
 30
0
 70
     0
  0
VERTEX
  8
LAYER1
 10
3.261
 20
7.6895
 30
0
 70
     0
  0
VERTEX
  8
LAYER1
 10
3.2834
 20
7.6542
 30
0
 70
     0
  0
VERTEX
  8
LAYER1
 10
3.2917
 20
7.6111
 30
0
 70
     0
  0
SEQEND
  0
POLYLINE
  8
LAYER1
  6
CONTINUOUS
 62
     7
 66
     1
 70
     0
 40
0.0039
 41
0.0039
  0
VERTEX
  8
LAYER1
 10
3.2917
 20
7.6111
 30
0
 70
     0
  0
VERTEX
  8
LAYER1
 10
3.2834
 20
7.568
 30
0
 70
     0
  0
VERTEX
  8
LAYER1
 10
3.261
 20
7.5327
 30
0
 70
     0
  0
VERTEX
  8
LAYER1
 10
3.2279
 20
7.5088
 30
0
 70
     0
  0
VERTEX
  8
LAYER1
 10
3.1875
 20
7.5
 30
0
 70
     0
  0
SEQEND
  0
POLYLINE
  8
LAYER1
  6
CONTINUOUS
 62
     7
 66
     1
 70
     0
 40
0.0039
 41
0.0039
  0
VERTEX
  8
LAYER1
 10
3.0833
 20
7.5694
 30
0
 70
     0
  0
VERTEX
  8
LAYER1
 10
3.0916
 20
7.5964
 30
0
 70
     0
  0
VERTEX
  8
LAYER1
 10
3.114
 20
7.6184
 30
0
 70
     0
  0
VERTEX
  8
LAYER1
 10
3.1471
 20
7.6334
 30
0
 70
     0
  0
VERTEX
  8
LAYER1
 10
3.1875
 20
7.6389
 30
0
 70
     0
  0
SEQEND
  0
POLYLINE
  8
LAYER1
  6
CONTINUOUS
 62
     7
 66
     1
 70
     0
 40
0.0039
 41
0.0039
  0
VERTEX
  8
LAYER1
 10
3.1875
 20
7.5
 30
0
 70
     0
  0
VERTEX
  8
LAYER1
 10
3.1471
 20
7.5055
 30
0
 70
     0
  0
VERTEX
  8
LAYER1
 10
3.114
 20
7.5204
 30
0
 70
     0
  0
VERTEX
  8
LAYER1
 10
3.0916
 20
7.5425
 30
0
 70
     0
  0
VERTEX
  8
LAYER1
 10
3.0833
 20
7.5694
 30
0
 70
     0
  0
SEQEND
  0
ENDBLK
  8
LAYER1
  0
BLOCK
  8
LAYER1
  2
Group74
 70
     0
 10
0
 20
0
 30
0
  0
POLYLINE
  8
LAYER1
  6
CONTINUOUS
 62
     7
 66
     1
 70
     0
 40
0.0039
 41
0.0039
  0
VERTEX
  8
LAYER1
 10
3.1875
 20
7.6389
 30
0
 70
     0
  0
VERTEX
  8
LAYER1
 10
3.2279
 20
7.6301
 30
0
 70
     0
  0
VERTEX
  8
LAYER1
 10
3.261
 20
7.6062
 30
0
 70
     0
  0
VERTEX
  8
LAYER1
 10
3.2834
 20
7.5708
 30
0
 70
     0
  0
VERTEX
  8
LAYER1
 10
3.2917
 20
7.5278
 30
0
 70
     0
  0
SEQEND
  0
POLYLINE
  8
LAYER1
  6
CONTINUOUS
 62
     7
 66
     1
 70
     0
 40
0.0039
 41
0.0039
  0
VERTEX
  8
LAYER1
 10
3.2917
 20
7.5278
 30
0
 70
     0
  0
VERTEX
  8
LAYER1
 10
3.2834
 20
7.4847
 30
0
 70
     0
  0
VERTEX
  8
LAYER1
 10
3.261
 20
7.4494
 30
0
 70
     0
  0
VERTEX
  8
LAYER1
 10
3.2279
 20
7.4255
 30
0
 70
     0
  0
VERTEX
  8
LAYER1
 10
3.1875
 20
7.4167
 30
0
 70
     0
  0
SEQEND
  0
POLYLINE
  8
LAYER1
  6
CONTINUOUS
 62
     7
 66
     1
 70
     0
 40
0.0039
 41
0.0039
  0
VERTEX
  8
LAYER1
 10
3.0833
 20
7.5
 30
0
 70
     0
  0
VERTEX
  8
LAYER1
 10
3.0916
 20
7.5269
 30
0
 70
     0
  0
VERTEX
  8
LAYER1
 10
3.114
 20
7.549
 30
0
 70
     0
  0
VERTEX
  8
LAYER1
 10
3.1471
 20
7.5639
 30
0
 70
     0
  0
VERTEX
  8
LAYER1
 10
3.1875
 20
7.5694
 30
0
 70
     0
  0
SEQEND
  0
POLYLINE
  8
LAYER1
  6
CONTINUOUS
 62
     7
 66
     1
 70
     0
 40
0.0039
 41
0.0039
  0
VERTEX
  8
LAYER1
 10
3.1875
 20
7.4306
 30
0
 70
     0
  0
VERTEX
  8
LAYER1
 10
3.1471
 20
7.436
 30
0
 70
     0
  0
VERTEX
  8
LAYER1
 10
3.114
 20
7.451
 30
0
 70
     0
  0
VERTEX
  8
LAYER1
 10
3.0916
 20
7.4731
 30
0
 70
     0
  0
VERTEX
  8
LAYER1
 10
3.0833
 20
7.5
 30
0
 70
     0
  0
SEQEND
  0
ENDBLK
  8
LAYER1
  0
BLOCK
  8
LAYER1
  2
Group75
 70
     0
 10
0
 20
0
 30
0
  0
POLYLINE
  8
LAYER1
  6
CONTINUOUS
 62
     7
 66
     1
 70
     0
 40
0.0039
 41
0.0039
  0
VERTEX
  8
LAYER1
 10
3.1875
 20
7.5694
 30
0
 70
     0
  0
VERTEX
  8
LAYER1
 10
3.2279
 20
7.5606
 30
0
 70
     0
  0
VERTEX
  8
LAYER1
 10
3.261
 20
7.5367
 30
0
 70
     0
  0
VERTEX
  8
LAYER1
 10
3.2834
 20
7.5014
 30
0
 70
     0
  0
VERTEX
  8
LAYER1
 10
3.2917
 20
7.4583
 30
0
 70
     0
  0
SEQEND
  0
POLYLINE
  8
LAYER1
  6
CONTINUOUS
 62
     7
 66
     1
 70
     0
 40
0.0039
 41
0.0039
  0
VERTEX
  8
LAYER1
 10
3.2917
 20
7.4583
 30
0
 70
     0
  0
VERTEX
  8
LAYER1
 10
3.2834
 20
7.4152
 30
0
 70
     0
  0
VERTEX
  8
LAYER1
 10
3.261
 20
7.3799
 30
0
 70
     0
  0
VERTEX
  8
LAYER1
 10
3.2279
 20
7.356
 30
0
 70
     0
  0
VERTEX
  8
LAYER1
 10
3.1875
 20
7.3472
 30
0
 70
     0
  0
SEQEND
  0
POLYLINE
  8
LAYER1
  6
CONTINUOUS
 62
     7
 66
     1
 70
     0
 40
0.0039
 41
0.0039
  0
VERTEX
  8
LAYER1
 10
3.0833
 20
7.4167
 30
0
 70
     0
  0
VERTEX
  8
LAYER1
 10
3.0916
 20
7.4436
 30
0
 70
     0
  0
VERTEX
  8
LAYER1
 10
3.114
 20
7.4657
 30
0
 70
     0
  0
VERTEX
  8
LAYER1
 10
3.1471
 20
7.4806
 30
0
 70
     0
  0
VERTEX
  8
LAYER1
 10
3.1875
 20
7.4861
 30
0
 70
     0
  0
SEQEND
  0
POLYLINE
  8
LAYER1
  6
CONTINUOUS
 62
     7
 66
     1
 70
     0
 40
0.0039
 41
0.0039
  0
VERTEX
  8
LAYER1
 10
3.1875
 20
7.3472
 30
0
 70
     0
  0
VERTEX
  8
LAYER1
 10
3.1471
 20
7.3527
 30
0
 70
     0
  0
VERTEX
  8
LAYER1
 10
3.114
 20
7.3677
 30
0
 70
     0
  0
VERTEX
  8
LAYER1
 10
3.0916
 20
7.3897
 30
0
 70
     0
  0
VERTEX
  8
LAYER1
 10
3.0833
 20
7.4167
 30
0
 70
     0
  0
SEQEND
  0
ENDBLK
  8
LAYER1
  0
BLOCK
  8
LAYER1
  2
Group76
 70
     0
 10
0
 20
0
 30
0
  0
INSERT
  8
LAYER1
  2
Group72
 10
0
 20
0
 30
0
  0
INSERT
  8
LAYER1
  2
Group73
 10
0
 20
0
 30
0
  0
INSERT
  8
LAYER1
  2
Group74
 10
0
 20
0
 30
0
  0
INSERT
  8
LAYER1
  2
Group75
 10
0
 20
0
 30
0
  0
ENDBLK
  8
LAYER1
  0
BLOCK
  8
LAYER1
  2
Group77
 70
     0
 10
0
 20
0
 30
0
  0
CIRCLE
  8
LAYER1
 10
3.4306
 20
8.375
 30
0
 40
0.0556
  0
CIRCLE
  8
LAYER1
 10
3.4306
 20
8.375
 30
0
 40
0.0556
  0
LINE
  8
LAYER1
  6
CONTINUOUS
 62
     7
 10
2.9306
 20
8.2778
 30
0
 11
3.4722
 21
8.3333
 31
0
  0
CIRCLE
  8
LAYER1
 10
2.9306
 20
8.2778
 30
0
 40
0.0556
  0
CIRCLE
  8
LAYER1
 10
2.9306
 20
8.2778
 30
0
 40
0.0556
  0
ENDBLK
  8
LAYER1
  0
BLOCK
  8
LAYER1
  2
Group78
 70
     0
 10
0
 20
0
 30
0
  0
LINE
  8
LAYER1
  6
CONTINUOUS
 62
     7
 10
3.1806
 20
8.3056
 30
0
 11
3.1806
 21
8.2778
 31
0
  0
LINE
  8
LAYER1
  6
CONTINUOUS
 62
     7
 10
3.1806
 20
8.2361
 30
0
 11
3.1806
 21
8.2083
 31
0
  0
LINE
  8
LAYER1
  6
CONTINUOUS
 62
     7
 10
3.1806
 20
8.1667
 30
0
 11
3.1806
 21
8.1389
 31
0
  0
LINE
  8
LAYER1
  6
CONTINUOUS
 62
     7
 10
3.1806
 20
8.0972
 30
0
 11
3.1806
 21
8.0694
 31
0
  0
LINE
  8
LAYER1
  6
CONTINUOUS
 62
     7
 10
3.1806
 20
8.0278
 30
0
 11
3.1806
 21
8
 31
0
  0
LINE
  8
LAYER1
  6
CONTINUOUS
 62
     7
 10
3.1806
 20
7.9583
 30
0
 11
3.1806
 21
7.9306
 31
0
  0
ENDBLK
  8
LAYER1
  0
BLOCK
  8
LAYER1
  2
Group79
 70
     0
 10
0
 20
0
 30
0
  0
INSERT
  8
LAYER1
  2
Group71
 10
0
 20
0
 30
0
  0
INSERT
  8
LAYER1
  2
Group76
 10
0
 20
0
 30
0
  0
INSERT
  8
LAYER1
  2
Group77
 10
0
 20
0
 30
0
  0
LINE
  8
LAYER1
  6
DASH1
 62
     7
 10
3.1806
 20
8.3056
 30
0
 11
3.1806
 21
7.8056
 31
0
  0
INSERT
  8
LAYER1
  2
Group78
 10
0
 20
0
 30
0
  0
ENDBLK
  8
LAYER1
  0
BLOCK
  8
LAYER1
  2
Group80
 70
     0
 10
0
 20
0
 30
0
  0
INSERT
  8
LAYER1
  2
Group79
 10
0
 20
0
 30
0
  0
ENDBLK
  8
LAYER1
  0
BLOCK
  8
LAYER1
  2
Group81
 70
     0
 10
0
 20
0
 30
0
  0
LINE
  8
LAYER1
  6
CONTINUOUS
 62
     7
 10
3.2222
 20
6.4306
 30
0
 11
3.2222
 21
6.4028
 31
0
  0
LINE
  8
LAYER1
  6
CONTINUOUS
 62
     7
 10
3.2222
 20
6.375
 30
0
 11
3.2222
 21
6.3472
 31
0
  0
LINE
  8
LAYER1
  6
CONTINUOUS
 62
     7
 10
3.2222
 20
6.3194
 30
0
 11
3.2222
 21
6.2917
 31
0
  0
LINE
  8
LAYER1
  6
CONTINUOUS
 62
     7
 10
3.2222
 20
6.2639
 30
0
 11
3.2222
 21
6.2361
 31
0
  0
LINE
  8
LAYER1
  6
CONTINUOUS
 62
     7
 10
3.2222
 20
6.2083
 30
0
 11
3.2222
 21
6.1806
 31
0
  0
LINE
  8
LAYER1
  6
CONTINUOUS
 62
     7
 10
3.2222
 20
6.1528
 30
0
 11
3.2222
 21
6.125
 31
0
  0
LINE
  8
LAYER1
  6
CONTINUOUS
 62
     7
 10
3.2222
 20
6.0972
 30
0
 11
3.2222
 21
6.0694
 31
0
  0
LINE
  8
LAYER1
  6
CONTINUOUS
 62
     7
 10
3.2222
 20
6.0417
 30
0
 11
3.2222
 21
6.0139
 31
0
  0
ENDBLK
  8
LAYER1
  0
BLOCK
  8
LAYER1
  2
Group82
 70
     0
 10
0
 20
0
 30
0
  0
LINE
  8
LAYER1
  6
CONTINUOUS
 62
     7
 10
3.1806
 20
7.8889
 30
0
 11
3.1806
 21
7.8611
 31
0
  0
LINE
  8
LAYER1
  6
CONTINUOUS
 62
     7
 10
2.9306
 20
6.4028
 30
0
 11
3.4306
 21
6.4444
 31
0
  0
LINE
  8
LAYER1
  6
CONTINUOUS
 62
     7
 10
2.9306
 20
5.9028
 30
0
 11
3.4306
 21
5.9444
 31
0
  0
CIRCLE
  8
LAYER1
 10
3.4306
 20
6.1944
 30
0
 40
0.0556
  0
CIRCLE
  8
LAYER1
 10
3.4306
 20
6.1944
 30
0
 40
0.0556
  0
CIRCLE
  8
LAYER1
 10
3.4306
 20
6.4861
 30
0
 40
0.0556
  0
CIRCLE
  8
LAYER1
 10
3.4306
 20
6.4861
 30
0
 40
0.0556
  0
CIRCLE
  8
LAYER1
 10
2.9306
 20
6.3889
 30
0
 40
0.0556
  0
CIRCLE
  8
LAYER1
 10
2.9306
 20
6.3889
 30
0
 40
0.0556
  0
CIRCLE
  8
LAYER1
 10
3.4306
 20
5.6944
 30
0
 40
0.0556
  0
CIRCLE
  8
LAYER1
 10
3.4306
 20
5.6944
 30
0
 40
0.0556
  0
CIRCLE
  8
LAYER1
 10
3.4306
 20
5.9861
 30
0
 40
0.0556
  0
CIRCLE
  8
LAYER1
 10
3.4306
 20
5.9861
 30
0
 40
0.0556
  0
CIRCLE
  8
LAYER1
 10
2.9306
 20
5.8889
 30
0
 40
0.0556
  0
CIRCLE
  8
LAYER1
 10
2.9306
 20
5.8889
 30
0
 40
0.0556
  0
LINE
  8
LAYER1
  6
DASH2
 62
     7
 10
3.2222
 20
6.4306
 30
0
 11
3.2222
 21
5.9306
 31
0
  0
INSERT
  8
LAYER1
  2
Group81
 10
0
 20
0
 30
0
  0
ENDBLK
  8
LAYER1
  0
BLOCK
  8
LAYER1
  2
Group83
 70
     0
 10
0
 20
0
 30
0
  0
INSERT
  8
LAYER1
  2
Group82
 10
0
 20
0
 30
0
  0
ENDBLK
  8
LAYER1
  0
BLOCK
  8
LAYER1
  2
Group84
 70
     0
 10
0
 20
0
 30
0
  0
LINE
  8
LAYER1
  6
CONTINUOUS
 62
     7
 10
3.125
 20
4.8472
 30
0
 11
3.125
 21
4.8194
 31
0
  0
LINE
  8
LAYER1
  6
CONTINUOUS
 62
     7
 10
3.125
 20
4.7917
 30
0
 11
3.125
 21
4.7639
 31
0
  0
LINE
  8
LAYER1
  6
CONTINUOUS
 62
     7
 10
3.125
 20
4.7361
 30
0
 11
3.125
 21
4.7083
 31
0
  0
LINE
  8
LAYER1
  6
CONTINUOUS
 62
     7
 10
3.125
 20
4.6806
 30
0
 11
3.125
 21
4.6528
 31
0
  0
LINE
  8
LAYER1
  6
CONTINUOUS
 62
     7
 10
3.125
 20
4.625
 30
0
 11
3.125
 21
4.5972
 31
0
  0
LINE
  8
LAYER1
  6
CONTINUOUS
 62
     7
 10
3.125
 20
4.5694
 30
0
 11
3.125
 21
4.5417
 31
0
  0
LINE
  8
LAYER1
  6
CONTINUOUS
 62
     7
 10
3.125
 20
4.5139
 30
0
 11
3.125
 21
4.4861
 31
0
  0
LINE
  8
LAYER1
  6
CONTINUOUS
 62
     7
 10
3.125
 20
4.4583
 30
0
 11
3.125
 21
4.4306
 31
0
  0
LINE
  8
LAYER1
  6
CONTINUOUS
 62
     7
 10
3.125
 20
4.4028
 30
0
 11
3.125
 21
4.375
 31
0
  0
LINE
  8
LAYER1
  6
CONTINUOUS
 62
     7
 10
3.125
 20
4.3472
 30
0
 11
3.125
 21
4.3194
 31
0
  0
LINE
  8
LAYER1
  6
CONTINUOUS
 62
     7
 10
3.125
 20
4.2917
 30
0
 11
3.125
 21
4.2639
 31
0
  0
LINE
  8
LAYER1
  6
CONTINUOUS
 62
     7
 10
3.125
 20
4.2361
 30
0
 11
3.125
 21
4.2083
 31
0
  0
LINE
  8
LAYER1
  6
CONTINUOUS
 62
     7
 10
3.125
 20
4.1806
 30
0
 11
3.125
 21
4.1528
 31
0
  0
LINE
  8
LAYER1
  6
CONTINUOUS
 62
     7
 10
3.125
 20
4.125
 30
0
 11
3.125
 21
4.0972
 31
0
  0
LINE
  8
LAYER1
  6
CONTINUOUS
 62
     7
 10
3.125
 20
4.0694
 30
0
 11
3.125
 21
4.0417
 31
0
  0
LINE
  8
LAYER1
  6
CONTINUOUS
 62
     7
 10
3.125
 20
4.0139
 30
0
 11
3.125
 21
3.9861
 31
0
  0
LINE
  8
LAYER1
  6
CONTINUOUS
 62
     7
 10
3.125
 20
3.9583
 30
0
 11
3.125
 21
3.9306
 31
0
  0
ENDBLK
  8
LAYER1
  0
BLOCK
  8
LAYER1
  2
Group85
 70
     0
 10
0
 20
0
 30
0
  0
LINE
  8
LAYER1
  6
CONTINUOUS
 62
     7
 10
3.2222
 20
5.9861
 30
0
 11
3.2222
 21
5.9583
 31
0
  0
LINE
  8
LAYER1
  6
CONTINUOUS
 62
     7
 10
2.8194
 20
4.8194
 30
0
 11
3.3333
 21
4.8611
 31
0
  0
LINE
  8
LAYER1
  6
CONTINUOUS
 62
     7
 10
2.8194
 20
4.3194
 30
0
 11
3.3333
 21
4.3611
 31
0
  0
LINE
  8
LAYER1
  6
CONTINUOUS
 62
     7
 10
2.8194
 20
3.8194
 30
0
 11
3.3333
 21
3.8611
 31
0
  0
CIRCLE
  8
LAYER1
 10
3.3333
 20
4.6111
 30
0
 40
0.0556
  0
CIRCLE
  8
LAYER1
 10
3.3333
 20
4.6111
 30
0
 40
0.0556
  0
CIRCLE
  8
LAYER1
 10
3.3333
 20
4.9167
 30
0
 40
0.0556
  0
CIRCLE
  8
LAYER1
 10
3.3333
 20
4.9167
 30
0
 40
0.0556
  0
CIRCLE
  8
LAYER1
 10
2.8333
 20
4.8056
 30
0
 40
0.0556
  0
CIRCLE
  8
LAYER1
 10
2.8333
 20
4.8056
 30
0
 40
0.0556
  0
CIRCLE
  8
LAYER1
 10
3.3333
 20
4.1111
 30
0
 40
0.0556
  0
CIRCLE
  8
LAYER1
 10
3.3333
 20
4.1111
 30
0
 40
0.0556
  0
CIRCLE
  8
LAYER1
 10
3.3333
 20
4.4167
 30
0
 40
0.0556
  0
CIRCLE
  8
LAYER1
 10
3.3333
 20
4.4167
 30
0
 40
0.0556
  0
CIRCLE
  8
LAYER1
 10
2.8333
 20
4.3056
 30
0
 40
0.0556
  0
CIRCLE
  8
LAYER1
 10
2.8333
 20
4.3056
 30
0
 40
0.0556
  0
CIRCLE
  8
LAYER1
 10
3.3333
 20
3.6111
 30
0
 40
0.0556
  0
CIRCLE
  8
LAYER1
 10
3.3333
 20
3.6111
 30
0
 40
0.0556
  0
CIRCLE
  8
LAYER1
 10
3.3333
 20
3.9167
 30
0
 40
0.0556
  0
CIRCLE
  8
LAYER1
 10
3.3333
 20
3.9167
 30
0
 40
0.0556
  0
CIRCLE
  8
LAYER1
 10
2.8333
 20
3.8056
 30
0
 40
0.0556
  0
CIRCLE
  8
LAYER1
 10
2.8333
 20
3.8056
 30
0
 40
0.0556
  0
LINE
  8
LAYER1
  6
DASH2
 62
     7
 10
3.125
 20
4.8472
 30
0
 11
3.125
 21
3.8472
 31
0
  0
INSERT
  8
LAYER1
  2
Group84
 10
0
 20
0
 30
0
  0
ENDBLK
  8
LAYER1
  0
BLOCK
  8
LAYER1
  2
Group86
 70
     0
 10
0
 20
0
 30
0
  0
INSERT
  8
LAYER1
  2
Group85
 10
0
 20
0
 30
0
  0
ENDBLK
  8
LAYER1
  0
BLOCK
  8
LAYER1
  2
Group87
 70
     0
 10
0
 20
0
 30
0
  0
LINE
  8
LAYER1
  6
CONTINUOUS
 62
     7
 10
3.125
 20
3.9028
 30
0
 11
3.125
 21
3.875
 31
0
  0
CIRCLE
  8
LAYER1
 10
2.9306
 20
2.5
 30
0
 40
0.0556
  0
CIRCLE
  8
LAYER1
 10
2.9306
 20
2.5
 30
0
 40
0.0556
  0
CIRCLE
  8
LAYER1
 10
3.3333
 20
2.5
 30
0
 40
0.0556
  0
CIRCLE
  8
LAYER1
 10
3.3333
 20
2.5
 30
0
 40
0.0556
  0
CIRCLE
  8
LAYER1
 10
3.125
 20
2.5
 30
0
 40
0.0556
  0
CIRCLE
  8
LAYER1
 10
3.125
 20
2.5
 30
0
 40
0.0556
  0
LINE
  8
LAYER1
  6
CONTINUOUS
 62
     7
 10
3.0278
 20
2.5556
 30
0
 11
3.0278
 21
2.6806
 31
0
  0
ENDBLK
  8
LAYER1
  0
BLOCK
  8
LAYER1
  2
Group88
 70
     0
 10
0
 20
0
 30
0
  0
INSERT
  8
LAYER1
  2
Group87
 10
0
 20
0
 30
0
  0
ENDBLK
  8
LAYER1
  0
BLOCK
  8
LAYER1
  2
Group89
 70
     0
 10
0
 20
0
 30
0
  0
LINE
  8
LAYER1
  6
CONTINUOUS
 62
     7
 10
2.9306
 20
2.5556
 30
0
 11
3.125
 21
2.5556
 31
0
  0
SOLID
  8
LAYER1
 62
     7
 10
3.2917
 20
1.5417
 30
0
 11
3.2639
 21
1.4583
 31
0
 12
3.2361
 22
1.4861
 32
0
 13
3.25
 23
1.4722
 33
0
  0
ENDBLK
  8
LAYER1
  0
BLOCK
  8
LAYER1
  2
Group90
 70
     0
 10
0
 20
0
 30
0
  0
INSERT
  8
LAYER1
  2
Group89
 10
0
 20
0
 30
0
  0
LINE
  8
LAYER1
  6
CONTINUOUS
 62
     7
 10
3.125
 20
1.2639
 30
0
 11
3.25
 21
1.4722
 31
0
  0
CIRCLE
  8
LAYER1
 10
3.125
 20
2.5
 30
0
 40
0.0556
  0
CIRCLE
  8
LAYER1
 10
3.125
 20
2.5
 30
0
 40
0.0556
  0
CIRCLE
  8
LAYER1
 10
3.125
 20
2.5
 30
0
 40
0.0556
  0
CIRCLE
  8
LAYER1
 10
3.125
 20
2.5
 30
0
 40
0.0556
  0
CIRCLE
  8
LAYER1
 10
3.125
 20
2.5
 30
0
 40
0.0556
  0
CIRCLE
  8
LAYER1
 10
3.125
 20
2.5
 30
0
 40
0.0556
  0
CIRCLE
  8
LAYER1
 10
3.125
 20
2.5
 30
0
 40
0.0556
  0
CIRCLE
  8
LAYER1
 10
3.125
 20
2.5
 30
0
 40
0.0556
  0
CIRCLE
  8
LAYER1
 10
3.125
 20
2.5
 30
0
 40
0.0556
  0
CIRCLE
  8
LAYER1
 10
3.125
 20
2.5
 30
0
 40
0.0556
  0
CIRCLE
  8
LAYER1
 10
3.125
 20
2.5
 30
0
 40
0.0556
  0
CIRCLE
  8
LAYER1
 10
3.125
 20
2.5
 30
0
 40
0.0556
  0
ENDBLK
  8
LAYER1
  0
BLOCK
  8
LAYER1
  2
Group91
 70
     0
 10
0
 20
0
 30
0
  0
INSERT
  8
LAYER1
  2
Group90
 10
0
 20
0
 30
0
  0
ENDBLK
  8
LAYER1
  0
BLOCK
  8
LAYER1
  2
Group92
 70
     0
 10
0
 20
0
 30
0
  0
SOLID
  8
LAYER1
 62
     7
 10
5.5139
 20
10.5694
 30
0
 11
5.5278
 21
10.5
 31
0
 12
5.4861
 22
10.5
 32
0
 13
5.5139
 23
10.5
 33
0
  0
ENDBLK
  8
LAYER1
  0
BLOCK
  8
LAYER1
  2
Group93
 70
     0
 10
0
 20
0
 30
0
  0
INSERT
  8
LAYER1
  2
Group92
 10
0
 20
0
 30
0
  0
POLYLINE
  8
LAYER1
  6
CONTINUOUS
 62
     7
 66
     1
 70
     0
 40
0.0039
 41
0.0039
  0
VERTEX
  8
LAYER1
 10
5.5139
 20
10.5
 30
0
 70
     0
  0
VERTEX
  8
LAYER1
 10
5.5139
 20
10.3194
 30
0
 70
     0
  0
VERTEX
  8
LAYER1
 10
5.7639
 20
10.3194
 30
0
 70
     0
  0
SEQEND
  0
CIRCLE
  8
LAYER1
 10
5.8194
 20
10.3194
 30
0
 40
0.0556
  0
CIRCLE
  8
LAYER1
 10
5.8194
 20
10.3194
 30
0
 40
0.0556
  0
LINE
  8
LAYER1
  6
CONTINUOUS
 62
     7
 10
5
 20
10.625
 30
0
 11
5.625
 21
10.625
 31
0
  0
LINE
  8
LAYER1
  6
CONTINUOUS
 62
     0
 10
5.2361
 20
10.0278
 30
0
 11
5.4028
 21
10.1944
 31
0
  0
LINE
  8
LAYER1
  6
CONTINUOUS
 62
     0
 10
5.2083
 20
10.1667
 30
0
 11
5.4028
 21
10.375
 31
0
  0
LINE
  8
LAYER1
  6
CONTINUOUS
 62
     0
 10
5.2083
 20
10.3472
 30
0
 11
5.3889
 21
10.5278
 31
0
  0
CIRCLE
  8
LAYER1
 10
5.0139
 20
10.6111
 30
0
 40
0.0556
  0
CIRCLE
  8
LAYER1
 10
5.0139
 20
10.6111
 30
0
 40
0.0556
  0
POLYLINE
  8
LAYER1
  6
CONTINUOUS
 62
     7
 66
     1
 70
     0
 40
0.0039
 41
0.0039
  0
VERTEX
  8
LAYER1
 10
5.4167
 20
10.4167
 30
0
 70
     0
  0
VERTEX
  8
LAYER1
 10
5.4382
 20
10.4123
 30
0
 70
     0
  0
VERTEX
  8
LAYER1
 10
5.4559
 20
10.4003
 30
0
 70
     0
  0
VERTEX
  8
LAYER1
 10
5.4678
 20
10.3826
 30
0
 70
     0
  0
VERTEX
  8
LAYER1
 10
5.4722
 20
10.3611
 30
0
 70
     0
  0
VERTEX
  8
LAYER1
 10
5.4722
 20
10.3611
 30
0
 70
     0
  0
VERTEX
  8
LAYER1
 10
5.4678
 20
10.3396
 30
0
 70
     0
  0
VERTEX
  8
LAYER1
 10
5.4559
 20
10.3219
 30
0
 70
     0
  0
VERTEX
  8
LAYER1
 10
5.4382
 20
10.3099
 30
0
 70
     0
  0
VERTEX
  8
LAYER1
 10
5.4167
 20
10.3056
 30
0
 70
     0
  0
SEQEND
  0
POLYLINE
  8
LAYER1
  6
CONTINUOUS
 62
     7
 66
     1
 70
     0
 40
0.0039
 41
0.0039
  0
VERTEX
  8
LAYER1
 10
5.2083
 20
10.2083
 30
0
 70
     0
  0
VERTEX
  8
LAYER1
 10
5.1868
 20
10.2127
 30
0
 70
     0
  0
VERTEX
  8
LAYER1
 10
5.1691
 20
10.2247
 30
0
 70
     0
  0
VERTEX
  8
LAYER1
 10
5.1572
 20
10.2424
 30
0
 70
     0
  0
VERTEX
  8
LAYER1
 10
5.1528
 20
10.2639
 30
0
 70
     0
  0
VERTEX
  8
LAYER1
 10
5.1528
 20
10.2639
 30
0
 70
     0
  0
VERTEX
  8
LAYER1
 10
5.1572
 20
10.2854
 30
0
 70
     0
  0
VERTEX
  8
LAYER1
 10
5.1691
 20
10.3031
 30
0
 70
     0
  0
VERTEX
  8
LAYER1
 10
5.1868
 20
10.315
 30
0
 70
     0
  0
VERTEX
  8
LAYER1
 10
5.2083
 20
10.3194
 30
0
 70
     0
  0
SEQEND
  0
POLYLINE
  8
LAYER1
  6
CONTINUOUS
 62
     7
 66
     1
 70
     0
 40
0.0039
 41
0.0039
  0
VERTEX
  8
LAYER1
 10
5.4167
 20
10.2222
 30
0
 70
     0
  0
VERTEX
  8
LAYER1
 10
5.4382
 20
10.2178
 30
0
 70
     0
  0
VERTEX
  8
LAYER1
 10
5.4559
 20
10.2059
 30
0
 70
     0
  0
VERTEX
  8
LAYER1
 10
5.4678
 20
10.1882
 30
0
 70
     0
  0
VERTEX
  8
LAYER1
 10
5.4722
 20
10.1667
 30
0
 70
     0
  0
VERTEX
  8
LAYER1
 10
5.4722
 20
10.1667
 30
0
 70
     0
  0
VERTEX
  8
LAYER1
 10
5.4678
 20
10.1451
 30
0
 70
     0
  0
VERTEX
  8
LAYER1
 10
5.4559
 20
10.1275
 30
0
 70
     0
  0
VERTEX
  8
LAYER1
 10
5.4382
 20
10.1155
 30
0
 70
     0
  0
VERTEX
  8
LAYER1
 10
5.4167
 20
10.1111
 30
0
 70
     0
  0
SEQEND
  0
LINE
  8
LAYER1
  6
CONTINUOUS
 62
     7
 10
5.4028
 20
10.125
 30
0
 11
5.0139
 21
10.125
 31
0
  0
POLYLINE
  8
LAYER1
  6
CONTINUOUS
 62
     7
 66
     1
 70
     0
 40
0.0039
 41
0.0039
  0
VERTEX
  8
LAYER1
 10
5.2083
 20
10.5278
 30
0
 70
     0
  0
VERTEX
  8
LAYER1
 10
5.4167
 20
10.5278
 30
0
 70
     0
  0
VERTEX
  8
LAYER1
 10
5.4167
 20
10.0139
 30
0
 70
     0
  0
VERTEX
  8
LAYER1
 10
5.2083
 20
10.0139
 30
0
 70
     0
  0
VERTEX
  8
LAYER1
 10
5.2083
 20
10.5278
 30
0
 70
     0
  0
SEQEND
  0
LINE
  8
LAYER1
  6
CONTINUOUS
 62
     7
 10
5.4028
 20
10.4167
 30
0
 11
5.0139
 21
10.4167
 31
0
  0
LINE
  8
LAYER1
  6
CONTINUOUS
 62
     7
 10
5.2361
 20
10.0278
 30
0
 11
5.4028
 21
10.1944
 31
0
  0
LINE
  8
LAYER1
  6
CONTINUOUS
 62
     7
 10
5.2083
 20
10.1667
 30
0
 11
5.4028
 21
10.375
 31
0
  0
LINE
  8
LAYER1
  6
CONTINUOUS
 62
     7
 10
5.2083
 20
10.3472
 30
0
 11
5.3889
 21
10.5278
 31
0
  0
LINE
  8
LAYER1
  6
CONTINUOUS
 62
     7
 10
5.2083
 20
10.2222
 30
0
 11
5.4028
 21
10.2222
 31
0
  0
CIRCLE
  8
LAYER1
 10
5.0139
 20
10.4167
 30
0
 40
0.0556
  0
CIRCLE
  8
LAYER1
 10
5.0139
 20
10.4167
 30
0
 40
0.0556
  0
CIRCLE
  8
LAYER1
 10
5.0139
 20
10.1111
 30
0
 40
0.0556
  0
CIRCLE
  8
LAYER1
 10
5.0139
 20
10.1111
 30
0
 40
0.0556
  0
ENDBLK
  8
LAYER1
  0
BLOCK
  8
LAYER1
  2
Group94
 70
     0
 10
0
 20
0
 30
0
  0
INSERT
  8
LAYER1
  2
Group93
 10
0
 20
0
 30
0
  0
ENDBLK
  8
LAYER1
  0
BLOCK
  8
LAYER1
  2
Group95
 70
     0
 10
0
 20
0
 30
0
  0
SOLID
  8
LAYER1
 62
     7
 10
5.5139
 20
9.1389
 30
0
 11
5.4861
 21
9.2222
 31
0
 12
5.5278
 22
9.2222
 32
0
 13
5.5139
 23
9.2222
 33
0
  0
ENDBLK
  8
LAYER1
  0
BLOCK
  8
LAYER1
  2
Group96
 70
     0
 10
0
 20
0
 30
0
  0
LINE
  8
LAYER1
  6
CONTINUOUS
 62
     7
 10
5
 20
9.1528
 30
0
 11
5.625
 21
9.1528
 31
0
  0
LINE
  8
LAYER1
  6
CONTINUOUS
 62
     0
 10
5.2361
 20
8.5556
 30
0
 11
5.4028
 21
8.7222
 31
0
  0
LINE
  8
LAYER1
  6
CONTINUOUS
 62
     0
 10
5.2083
 20
8.6944
 30
0
 11
5.4028
 21
8.9028
 31
0
  0
ENDBLK
  8
LAYER1
  0
BLOCK
  8
LAYER1
  2
Group97
 70
     0
 10
0
 20
0
 30
0
  0
LINE
  8
LAYER1
  6
CONTINUOUS
 62
     7
 10
5.4028
 20
8.9583
 30
0
 11
5.0139
 21
8.9583
 31
0
  0
LINE
  8
LAYER1
  6
CONTINUOUS
 62
     7
 10
5.2361
 20
8.5556
 30
0
 11
5.4028
 21
8.7222
 31
0
  0
LINE
  8
LAYER1
  6
CONTINUOUS
 62
     7
 10
5.2083
 20
8.6944
 30
0
 11
5.4028
 21
8.9028
 31
0
  0
ENDBLK
  8
LAYER1
  0
BLOCK
  8
LAYER1
  2
Group98
 70
     0
 10
0
 20
0
 30
0
  0
INSERT
  8
LAYER1
  2
Group95
 10
0
 20
0
 30
0
  0
POLYLINE
  8
LAYER1
  6
CONTINUOUS
 62
     7
 66
     1
 70
     0
 40
0.0039
 41
0.0039
  0
VERTEX
  8
LAYER1
 10
5.5139
 20
9.2222
 30
0
 70
     0
  0
VERTEX
  8
LAYER1
 10
5.5139
 20
9.3472
 30
0
 70
     0
  0
VERTEX
  8
LAYER1
 10
5.7639
 20
9.3472
 30
0
 70
     0
  0
SEQEND
  0
CIRCLE
  8
LAYER1
 10
5.8194
 20
9.3472
 30
0
 40
0.0556
  0
CIRCLE
  8
LAYER1
 10
5.8194
 20
9.3472
 30
0
 40
0.0556
  0
INSERT
  8
LAYER1
  2
Group96
 10
0
 20
0
 30
0
  0
LINE
  8
LAYER1
  6
CONTINUOUS
 62
     0
 10
5.2083
 20
8.875
 30
0
 11
5.3889
 21
9.0556
 31
0
  0
CIRCLE
  8
LAYER1
 10
5.0139
 20
9.1389
 30
0
 40
0.0556
  0
CIRCLE
  8
LAYER1
 10
5.0139
 20
9.1389
 30
0
 40
0.0556
  0
POLYLINE
  8
LAYER1
  6
CONTINUOUS
 62
     7
 66
     1
 70
     0
 40
0.0039
 41
0.0039
  0
VERTEX
  8
LAYER1
 10
5.4167
 20
8.9583
 30
0
 70
     0
  0
VERTEX
  8
LAYER1
 10
5.4382
 20
8.9539
 30
0
 70
     0
  0
VERTEX
  8
LAYER1
 10
5.4559
 20
8.942
 30
0
 70
     0
  0
VERTEX
  8
LAYER1
 10
5.4678
 20
8.9243
 30
0
 70
     0
  0
VERTEX
  8
LAYER1
 10
5.4722
 20
8.9028
 30
0
 70
     0
  0
VERTEX
  8
LAYER1
 10
5.4722
 20
8.9028
 30
0
 70
     0
  0
VERTEX
  8
LAYER1
 10
5.4678
 20
8.8812
 30
0
 70
     0
  0
VERTEX
  8
LAYER1
 10
5.4559
 20
8.8636
 30
0
 70
     0
  0
VERTEX
  8
LAYER1
 10
5.4382
 20
8.8516
 30
0
 70
     0
  0
VERTEX
  8
LAYER1
 10
5.4167
 20
8.8472
 30
0
 70
     0
  0
SEQEND
  0
POLYLINE
  8
LAYER1
  6
CONTINUOUS
 62
     7
 66
     1
 70
     0
 40
0.0039
 41
0.0039
  0
VERTEX
  8
LAYER1
 10
5.2083
 20
8.7361
 30
0
 70
     0
  0
VERTEX
  8
LAYER1
 10
5.1868
 20
8.7405
 30
0
 70
     0
  0
VERTEX
  8
LAYER1
 10
5.1691
 20
8.7525
 30
0
 70
     0
  0
VERTEX
  8
LAYER1
 10
5.1572
 20
8.7701
 30
0
 70
     0
  0
VERTEX
  8
LAYER1
 10
5.1528
 20
8.7917
 30
0
 70
     0
  0
VERTEX
  8
LAYER1
 10
5.1528
 20
8.7917
 30
0
 70
     0
  0
VERTEX
  8
LAYER1
 10
5.1572
 20
8.8132
 30
0
 70
     0
  0
VERTEX
  8
LAYER1
 10
5.1691
 20
8.8309
 30
0
 70
     0
  0
VERTEX
  8
LAYER1
 10
5.1868
 20
8.8428
 30
0
 70
     0
  0
VERTEX
  8
LAYER1
 10
5.2083
 20
8.8472
 30
0
 70
     0
  0
SEQEND
  0
POLYLINE
  8
LAYER1
  6
CONTINUOUS
 62
     7
 66
     1
 70
     0
 40
0.0039
 41
0.0039
  0
VERTEX
  8
LAYER1
 10
5.4167
 20
8.75
 30
0
 70
     0
  0
VERTEX
  8
LAYER1
 10
5.4382
 20
8.7456
 30
0
 70
     0
  0
VERTEX
  8
LAYER1
 10
5.4559
 20
8.7336
 30
0
 70
     0
  0
VERTEX
  8
LAYER1
 10
5.4678
 20
8.716
 30
0
 70
     0
  0
VERTEX
  8
LAYER1
 10
5.4722
 20
8.6944
 30
0
 70
     0
  0
VERTEX
  8
LAYER1
 10
5.4722
 20
8.6944
 30
0
 70
     0
  0
VERTEX
  8
LAYER1
 10
5.4678
 20
8.6729
 30
0
 70
     0
  0
VERTEX
  8
LAYER1
 10
5.4559
 20
8.6552
 30
0
 70
     0
  0
VERTEX
  8
LAYER1
 10
5.4382
 20
8.6433
 30
0
 70
     0
  0
VERTEX
  8
LAYER1
 10
5.4167
 20
8.6389
 30
0
 70
     0
  0
SEQEND
  0
LINE
  8
LAYER1
  6
CONTINUOUS
 62
     7
 10
5.4028
 20
8.6528
 30
0
 11
5.0139
 21
8.6528
 31
0
  0
POLYLINE
  8
LAYER1
  6
CONTINUOUS
 62
     7
 66
     1
 70
     0
 40
0.0039
 41
0.0039
  0
VERTEX
  8
LAYER1
 10
5.2083
 20
9.0556
 30
0
 70
     0
  0
VERTEX
  8
LAYER1
 10
5.4167
 20
9.0556
 30
0
 70
     0
  0
VERTEX
  8
LAYER1
 10
5.4167
 20
8.5417
 30
0
 70
     0
  0
VERTEX
  8
LAYER1
 10
5.2083
 20
8.5417
 30
0
 70
     0
  0
VERTEX
  8
LAYER1
 10
5.2083
 20
9.0556
 30
0
 70
     0
  0
SEQEND
  0
INSERT
  8
LAYER1
  2
Group97
 10
0
 20
0
 30
0
  0
LINE
  8
LAYER1
  6
CONTINUOUS
 62
     7
 10
5.2083
 20
8.875
 30
0
 11
5.3889
 21
9.0556
 31
0
  0
LINE
  8
LAYER1
  6
CONTINUOUS
 62
     7
 10
5.2083
 20
8.75
 30
0
 11
5.4028
 21
8.75
 31
0
  0
CIRCLE
  8
LAYER1
 10
5.0139
 20
8.9444
 30
0
 40
0.0556
  0
CIRCLE
  8
LAYER1
 10
5.0139
 20
8.9444
 30
0
 40
0.0556
  0
CIRCLE
  8
LAYER1
 10
5.0139
 20
8.6389
 30
0
 40
0.0556
  0
CIRCLE
  8
LAYER1
 10
5.0139
 20
8.6389
 30
0
 40
0.0556
  0
ENDBLK
  8
LAYER1
  0
BLOCK
  8
LAYER1
  2
Group99
 70
     0
 10
0
 20
0
 30
0
  0
SOLID
  8
LAYER1
 62
     7
 10
5.5139
 20
7.4306
 30
0
 11
5.4861
 21
7.5
 31
0
 12
5.5278
 22
7.5
 32
0
 13
5.5139
 23
7.5
 33
0
  0
ENDBLK
  8
LAYER1
  0
BLOCK
  8
LAYER1
  2
Group100
 70
     0
 10
0
 20
0
 30
0
  0
SOLID
  8
LAYER1
 62
     7
 10
5.5139
 20
7.3889
 30
0
 11
5.5278
 21
7.3056
 31
0
 12
5.4861
 22
7.3056
 32
0
 13
5.5139
 23
7.3056
 33
0
  0
ENDBLK
  8
LAYER1
  0
BLOCK
  8
LAYER1
  2
Group101
 70
     0
 10
0
 20
0
 30
0
  0
INSERT
  8
LAYER1
  2
Group99
 10
0
 20
0
 30
0
  0
POLYLINE
  8
LAYER1
  6
CONTINUOUS
 62
     7
 66
     1
 70
     0
 40
0.0039
 41
0.0039
  0
VERTEX
  8
LAYER1
 10
5.5139
 20
7.5
 30
0
 70
     0
  0
VERTEX
  8
LAYER1
 10
5.5139
 20
7.6389
 30
0
 70
     0
  0
VERTEX
  8
LAYER1
 10
5.7639
 20
7.6389
 30
0
 70
     0
  0
SEQEND
  0
CIRCLE
  8
LAYER1
 10
5.8194
 20
7.625
 30
0
 40
0.0556
  0
CIRCLE
  8
LAYER1
 10
5.8194
 20
7.625
 30
0
 40
0.0556
  0
LINE
  8
LAYER1
  6
CONTINUOUS
 62
     7
 10
5
 20
7.4306
 30
0
 11
5.625
 21
7.4306
 31
0
  0
LINE
  8
LAYER1
  6
CONTINUOUS
 62
     0
 10
5.2361
 20
6.8333
 30
0
 11
5.4028
 21
7
 31
0
  0
LINE
  8
LAYER1
  6
CONTINUOUS
 62
     0
 10
5.2083
 20
6.9861
 30
0
 11
5.4028
 21
7.1806
 31
0
  0
LINE
  8
LAYER1
  6
CONTINUOUS
 62
     0
 10
5.2083
 20
7.1528
 30
0
 11
5.3889
 21
7.3333
 31
0
  0
CIRCLE
  8
LAYER1
 10
5.0139
 20
7.4306
 30
0
 40
0.0556
  0
CIRCLE
  8
LAYER1
 10
5.0139
 20
7.4306
 30
0
 40
0.0556
  0
POLYLINE
  8
LAYER1
  6
CONTINUOUS
 62
     7
 66
     1
 70
     0
 40
0.0039
 41
0.0039
  0
VERTEX
  8
LAYER1
 10
5.4167
 20
7.2361
 30
0
 70
     0
  0
VERTEX
  8
LAYER1
 10
5.4382
 20
7.2317
 30
0
 70
     0
  0
VERTEX
  8
LAYER1
 10
5.4559
 20
7.2198
 30
0
 70
     0
  0
VERTEX
  8
LAYER1
 10
5.4678
 20
7.2021
 30
0
 70
     0
  0
VERTEX
  8
LAYER1
 10
5.4722
 20
7.1806
 30
0
 70
     0
  0
VERTEX
  8
LAYER1
 10
5.4722
 20
7.1806
 30
0
 70
     0
  0
VERTEX
  8
LAYER1
 10
5.4678
 20
7.159
 30
0
 70
     0
  0
VERTEX
  8
LAYER1
 10
5.4559
 20
7.1413
 30
0
 70
     0
  0
VERTEX
  8
LAYER1
 10
5.4382
 20
7.1294
 30
0
 70
     0
  0
VERTEX
  8
LAYER1
 10
5.4167
 20
7.125
 30
0
 70
     0
  0
SEQEND
  0
POLYLINE
  8
LAYER1
  6
CONTINUOUS
 62
     7
 66
     1
 70
     0
 40
0.0039
 41
0.0039
  0
VERTEX
  8
LAYER1
 10
5.2083
 20
7.0278
 30
0
 70
     0
  0
VERTEX
  8
LAYER1
 10
5.1868
 20
7.0322
 30
0
 70
     0
  0
VERTEX
  8
LAYER1
 10
5.1691
 20
7.0441
 30
0
 70
     0
  0
VERTEX
  8
LAYER1
 10
5.1572
 20
7.0618
 30
0
 70
     0
  0
VERTEX
  8
LAYER1
 10
5.1528
 20
7.0833
 30
0
 70
     0
  0
VERTEX
  8
LAYER1
 10
5.1528
 20
7.0833
 30
0
 70
     0
  0
VERTEX
  8
LAYER1
 10
5.1572
 20
7.1049
 30
0
 70
     0
  0
VERTEX
  8
LAYER1
 10
5.1691
 20
7.1225
 30
0
 70
     0
  0
VERTEX
  8
LAYER1
 10
5.1868
 20
7.1345
 30
0
 70
     0
  0
VERTEX
  8
LAYER1
 10
5.2083
 20
7.1389
 30
0
 70
     0
  0
SEQEND
  0
POLYLINE
  8
LAYER1
  6
CONTINUOUS
 62
     7
 66
     1
 70
     0
 40
0.0039
 41
0.0039
  0
VERTEX
  8
LAYER1
 10
5.4167
 20
7.0278
 30
0
 70
     0
  0
VERTEX
  8
LAYER1
 10
5.4382
 20
7.0234
 30
0
 70
     0
  0
VERTEX
  8
LAYER1
 10
5.4559
 20
7.0114
 30
0
 70
     0
  0
VERTEX
  8
LAYER1
 10
5.4678
 20
6.9938
 30
0
 70
     0
  0
VERTEX
  8
LAYER1
 10
5.4722
 20
6.9722
 30
0
 70
     0
  0
VERTEX
  8
LAYER1
 10
5.4722
 20
6.9722
 30
0
 70
     0
  0
VERTEX
  8
LAYER1
 10
5.4678
 20
6.9507
 30
0
 70
     0
  0
VERTEX
  8
LAYER1
 10
5.4559
 20
6.933
 30
0
 70
     0
  0
VERTEX
  8
LAYER1
 10
5.4382
 20
6.921
 30
0
 70
     0
  0
VERTEX
  8
LAYER1
 10
5.4167
 20
6.9167
 30
0
 70
     0
  0
SEQEND
  0
LINE
  8
LAYER1
  6
CONTINUOUS
 62
     7
 10
5.4028
 20
6.9306
 30
0
 11
5.0139
 21
6.9306
 31
0
  0
POLYLINE
  8
LAYER1
  6
CONTINUOUS
 62
     7
 66
     1
 70
     0
 40
0.0039
 41
0.0039
  0
VERTEX
  8
LAYER1
 10
5.2083
 20
7.3333
 30
0
 70
     0
  0
VERTEX
  8
LAYER1
 10
5.4167
 20
7.3333
 30
0
 70
     0
  0
VERTEX
  8
LAYER1
 10
5.4167
 20
6.8194
 30
0
 70
     0
  0
VERTEX
  8
LAYER1
 10
5.2083
 20
6.8194
 30
0
 70
     0
  0
VERTEX
  8
LAYER1
 10
5.2083
 20
7.3333
 30
0
 70
     0
  0
SEQEND
  0
LINE
  8
LAYER1
  6
CONTINUOUS
 62
     7
 10
5.4028
 20
7.2361
 30
0
 11
5.0139
 21
7.2361
 31
0
  0
LINE
  8
LAYER1
  6
CONTINUOUS
 62
     7
 10
5.2361
 20
6.8333
 30
0
 11
5.4028
 21
7
 31
0
  0
LINE
  8
LAYER1
  6
CONTINUOUS
 62
     7
 10
5.2083
 20
6.9861
 30
0
 11
5.4028
 21
7.1806
 31
0
  0
LINE
  8
LAYER1
  6
CONTINUOUS
 62
     7
 10
5.2083
 20
7.1528
 30
0
 11
5.3889
 21
7.3333
 31
0
  0
LINE
  8
LAYER1
  6
CONTINUOUS
 62
     7
 10
5.2083
 20
7.0278
 30
0
 11
5.4028
 21
7.0278
 31
0
  0
CIRCLE
  8
LAYER1
 10
5.0139
 20
7.2222
 30
0
 40
0.0556
  0
CIRCLE
  8
LAYER1
 10
5.0139
 20
7.2222
 30
0
 40
0.0556
  0
CIRCLE
  8
LAYER1
 10
5.0139
 20
6.9306
 30
0
 40
0.0556
  0
CIRCLE
  8
LAYER1
 10
5.0139
 20
6.9306
 30
0
 40
0.0556
  0
INSERT
  8
LAYER1
  2
Group100
 10
0
 20
0
 30
0
  0
POLYLINE
  8
LAYER1
  6
CONTINUOUS
 62
     7
 66
     1
 70
     0
 40
0.0039
 41
0.0039
  0
VERTEX
  8
LAYER1
 10
5.5139
 20
7.3056
 30
0
 70
     0
  0
VERTEX
  8
LAYER1
 10
5.5139
 20
7.1389
 30
0
 70
     0
  0
VERTEX
  8
LAYER1
 10
5.7639
 20
7.1389
 30
0
 70
     0
  0
SEQEND
  0
CIRCLE
  8
LAYER1
 10
5.8194
 20
7.125
 30
0
 40
0.0556
  0
CIRCLE
  8
LAYER1
 10
5.8194
 20
7.125
 30
0
 40
0.0556
  0
ENDBLK
  8
LAYER1
  0
BLOCK
  8
LAYER1
  2
Group102
 70
     0
 10
0
 20
0
 30
0
  0
INSERT
  8
LAYER1
  2
Group101
 10
0
 20
0
 30
0
  0
ENDBLK
  8
LAYER1
  0
BLOCK
  8
LAYER1
  2
Group103
 70
     0
 10
0
 20
0
 30
0
  0
SOLID
  8
LAYER1
 62
     7
 10
5.5139
 20
5.5139
 30
0
 11
5.5278
 21
5.4306
 31
0
 12
5.4861
 22
5.4306
 32
0
 13
5.5139
 23
5.4306
 33
0
  0
ENDBLK
  8
LAYER1
  0
BLOCK
  8
LAYER1
  2
Group104
 70
     0
 10
0
 20
0
 30
0
  0
INSERT
  8
LAYER1
  2
Group103
 10
0
 20
0
 30
0
  0
POLYLINE
  8
LAYER1
  6
CONTINUOUS
 62
     7
 66
     1
 70
     0
 40
0.0039
 41
0.0039
  0
VERTEX
  8
LAYER1
 10
5.5139
 20
5.4306
 30
0
 70
     0
  0
VERTEX
  8
LAYER1
 10
5.5139
 20
5.2639
 30
0
 70
     0
  0
VERTEX
  8
LAYER1
 10
5.7639
 20
5.2639
 30
0
 70
     0
  0
SEQEND
  0
CIRCLE
  8
LAYER1
 10
5.8194
 20
5.25
 30
0
 40
0.0556
  0
CIRCLE
  8
LAYER1
 10
5.8194
 20
5.25
 30
0
 40
0.0556
  0
ENDBLK
  8
LAYER1
  0
BLOCK
  8
LAYER1
  2
Group105
 70
     0
 10
0
 20
0
 30
0
  0
SOLID
  8
LAYER1
 62
     7
 10
5.5139
 20
5.9167
 30
0
 11
5.5278
 21
5.8333
 31
0
 12
5.4861
 22
5.8333
 32
0
 13
5.5139
 23
5.8333
 33
0
  0
ENDBLK
  8
LAYER1
  0
BLOCK
  8
LAYER1
  2
Group106
 70
     0
 10
0
 20
0
 30
0
  0
INSERT
  8
LAYER1
  2
Group105
 10
0
 20
0
 30
0
  0
POLYLINE
  8
LAYER1
  6
CONTINUOUS
 62
     7
 66
     1
 70
     0
 40
0.0039
 41
0.0039
  0
VERTEX
  8
LAYER1
 10
5.5139
 20
5.8333
 30
0
 70
     0
  0
VERTEX
  8
LAYER1
 10
5.5139
 20
5.6667
 30
0
 70
     0
  0
VERTEX
  8
LAYER1
 10
5.7639
 20
5.6667
 30
0
 70
     0
  0
SEQEND
  0
CIRCLE
  8
LAYER1
 10
5.8194
 20
5.6528
 30
0
 40
0.0556
  0
CIRCLE
  8
LAYER1
 10
5.8194
 20
5.6528
 30
0
 40
0.0556
  0
ENDBLK
  8
LAYER1
  0
BLOCK
  8
LAYER1
  2
Group107
 70
     0
 10
0
 20
0
 30
0
  0
LINE
  8
LAYER1
  6
CONTINUOUS
 62
     7
 10
5
 20
5.5556
 30
0
 11
5.625
 21
5.5556
 31
0
  0
CIRCLE
  8
LAYER1
 10
5.0139
 20
5.5556
 30
0
 40
0.0556
  0
CIRCLE
  8
LAYER1
 10
5.0139
 20
5.5556
 30
0
 40
0.0556
  0
POLYLINE
  8
LAYER1
  6
CONTINUOUS
 62
     7
 66
     1
 70
     0
 40
0.0039
 41
0.0039
  0
VERTEX
  8
LAYER1
 10
5.4167
 20
5.3611
 30
0
 70
     0
  0
VERTEX
  8
LAYER1
 10
5.4382
 20
5.3567
 30
0
 70
     0
  0
VERTEX
  8
LAYER1
 10
5.4559
 20
5.3448
 30
0
 70
     0
  0
VERTEX
  8
LAYER1
 10
5.4678
 20
5.3271
 30
0
 70
     0
  0
VERTEX
  8
LAYER1
 10
5.4722
 20
5.3056
 30
0
 70
     0
  0
VERTEX
  8
LAYER1
 10
5.4722
 20
5.3056
 30
0
 70
     0
  0
VERTEX
  8
LAYER1
 10
5.4678
 20
5.284
 30
0
 70
     0
  0
VERTEX
  8
LAYER1
 10
5.4559
 20
5.2663
 30
0
 70
     0
  0
VERTEX
  8
LAYER1
 10
5.4382
 20
5.2544
 30
0
 70
     0
  0
VERTEX
  8
LAYER1
 10
5.4167
 20
5.25
 30
0
 70
     0
  0
SEQEND
  0
POLYLINE
  8
LAYER1
  6
CONTINUOUS
 62
     7
 66
     1
 70
     0
 40
0.0039
 41
0.0039
  0
VERTEX
  8
LAYER1
 10
5.2083
 20
5.1528
 30
0
 70
     0
  0
VERTEX
  8
LAYER1
 10
5.1868
 20
5.1572
 30
0
 70
     0
  0
VERTEX
  8
LAYER1
 10
5.1691
 20
5.1691
 30
0
 70
     0
  0
VERTEX
  8
LAYER1
 10
5.1572
 20
5.1868
 30
0
 70
     0
  0
VERTEX
  8
LAYER1
 10
5.1528
 20
5.2083
 30
0
 70
     0
  0
VERTEX
  8
LAYER1
 10
5.1528
 20
5.2083
 30
0
 70
     0
  0
VERTEX
  8
LAYER1
 10
5.1572
 20
5.2299
 30
0
 70
     0
  0
VERTEX
  8
LAYER1
 10
5.1691
 20
5.2475
 30
0
 70
     0
  0
VERTEX
  8
LAYER1
 10
5.1868
 20
5.2595
 30
0
 70
     0
  0
VERTEX
  8
LAYER1
 10
5.2083
 20
5.2639
 30
0
 70
     0
  0
SEQEND
  0
POLYLINE
  8
LAYER1
  6
CONTINUOUS
 62
     7
 66
     1
 70
     0
 40
0.0039
 41
0.0039
  0
VERTEX
  8
LAYER1
 10
5.4167
 20
5.1667
 30
0
 70
     0
  0
VERTEX
  8
LAYER1
 10
5.4382
 20
5.1623
 30
0
 70
     0
  0
VERTEX
  8
LAYER1
 10
5.4559
 20
5.1503
 30
0
 70
     0
  0
VERTEX
  8
LAYER1
 10
5.4678
 20
5.1326
 30
0
 70
     0
  0
VERTEX
  8
LAYER1
 10
5.4722
 20
5.1111
 30
0
 70
     0
  0
VERTEX
  8
LAYER1
 10
5.4722
 20
5.1111
 30
0
 70
     0
  0
VERTEX
  8
LAYER1
 10
5.4678
 20
5.0896
 30
0
 70
     0
  0
VERTEX
  8
LAYER1
 10
5.4559
 20
5.0719
 30
0
 70
     0
  0
VERTEX
  8
LAYER1
 10
5.4382
 20
5.0599
 30
0
 70
     0
  0
VERTEX
  8
LAYER1
 10
5.4167
 20
5.0556
 30
0
 70
     0
  0
SEQEND
  0
LINE
  8
LAYER1
  6
CONTINUOUS
 62
     7
 10
5.4028
 20
5.0556
 30
0
 11
5.0139
 21
5.0556
 31
0
  0
POLYLINE
  8
LAYER1
  6
CONTINUOUS
 62
     7
 66
     1
 70
     0
 40
0.0039
 41
0.0039
  0
VERTEX
  8
LAYER1
 10
5.2083
 20
5.4583
 30
0
 70
     0
  0
VERTEX
  8
LAYER1
 10
5.4167
 20
5.4583
 30
0
 70
     0
  0
VERTEX
  8
LAYER1
 10
5.4167
 20
4.9444
 30
0
 70
     0
  0
VERTEX
  8
LAYER1
 10
5.2083
 20
4.9444
 30
0
 70
     0
  0
VERTEX
  8
LAYER1
 10
5.2083
 20
5.4583
 30
0
 70
     0
  0
SEQEND
  0
LINE
  8
LAYER1
  6
CONTINUOUS
 62
     7
 10
5.4028
 20
5.3611
 30
0
 11
5.0139
 21
5.3611
 31
0
  0
LINE
  8
LAYER1
  6
CONTINUOUS
 62
     7
 10
5.2361
 20
4.9583
 30
0
 11
5.4028
 21
5.1389
 31
0
  0
LINE
  8
LAYER1
  6
CONTINUOUS
 62
     7
 10
5.2083
 20
5.1111
 30
0
 11
5.4028
 21
5.3056
 31
0
  0
LINE
  8
LAYER1
  6
CONTINUOUS
 62
     7
 10
5.2083
 20
5.2917
 30
0
 11
5.3889
 21
5.4583
 31
0
  0
CIRCLE
  8
LAYER1
 10
5.0139
 20
5.3611
 30
0
 40
0.0556
  0
CIRCLE
  8
LAYER1
 10
5.0139
 20
5.3611
 30
0
 40
0.0556
  0
CIRCLE
  8
LAYER1
 10
5.0139
 20
5.0556
 30
0
 40
0.0556
  0
CIRCLE
  8
LAYER1
 10
5.0139
 20
5.0556
 30
0
 40
0.0556
  0
INSERT
  8
LAYER1
  2
Group104
 10
0
 20
0
 30
0
  0
LINE
  8
LAYER1
  6
CONTINUOUS
 62
     7
 10
5
 20
5.9583
 30
0
 11
5.625
 21
5.9583
 31
0
  0
CIRCLE
  8
LAYER1
 10
5.0139
 20
5.9583
 30
0
 40
0.0556
  0
CIRCLE
  8
LAYER1
 10
5.0139
 20
5.9583
 30
0
 40
0.0556
  0
INSERT
  8
LAYER1
  2
Group106
 10
0
 20
0
 30
0
  0
ENDBLK
  8
LAYER1
  0
BLOCK
  8
LAYER1
  2
Group108
 70
     0
 10
0
 20
0
 30
0
  0
INSERT
  8
LAYER1
  2
Group107
 10
0
 20
0
 30
0
  0
ENDBLK
  8
LAYER1
  0
BLOCK
  8
LAYER1
  2
Group109
 70
     0
 10
0
 20
0
 30
0
  0
SOLID
  8
LAYER1
 62
     7
 10
5.5139
 20
3.6528
 30
0
 11
5.4861
 21
3.7222
 31
0
 12
5.5278
 22
3.7222
 32
0
 13
5.5139
 23
3.7222
 33
0
  0
ENDBLK
  8
LAYER1
  0
BLOCK
  8
LAYER1
  2
Group110
 70
     0
 10
0
 20
0
 30
0
  0
SOLID
  8
LAYER1
 62
     7
 10
5.5139
 20
4.0556
 30
0
 11
5.4861
 21
4.125
 31
0
 12
5.5278
 22
4.125
 32
0
 13
5.5139
 23
4.125
 33
0
  0
ENDBLK
  8
LAYER1
  0
BLOCK
  8
LAYER1
  2
Group111
 70
     0
 10
0
 20
0
 30
0
  0
LINE
  8
LAYER1
  6
CONTINUOUS
 62
     7
 10
5.3056
 20
4.0556
 30
0
 11
5.3056
 21
4.0417
 31
0
  0
LINE
  8
LAYER1
  6
CONTINUOUS
 62
     7
 10
5.3056
 20
4
 30
0
 11
5.3056
 21
3.9861
 31
0
  0
LINE
  8
LAYER1
  6
CONTINUOUS
 62
     7
 10
5.3056
 20
3.9444
 30
0
 11
5.3056
 21
3.9306
 31
0
  0
LINE
  8
LAYER1
  6
CONTINUOUS
 62
     7
 10
5.3056
 20
3.8889
 30
0
 11
5.3056
 21
3.875
 31
0
  0
LINE
  8
LAYER1
  6
CONTINUOUS
 62
     7
 10
5.3056
 20
3.8333
 30
0
 11
5.3056
 21
3.8194
 31
0
  0
LINE
  8
LAYER1
  6
CONTINUOUS
 62
     7
 10
5.3056
 20
3.7778
 30
0
 11
5.3056
 21
3.7639
 31
0
  0
ENDBLK
  8
LAYER1
  0
BLOCK
  8
LAYER1
  2
Group112
 70
     0
 10
0
 20
0
 30
0
  0
INSERT
  8
LAYER1
  2
Group109
 10
0
 20
0
 30
0
  0
POLYLINE
  8
LAYER1
  6
CONTINUOUS
 62
     7
 66
     1
 70
     0
 40
0.0039
 41
0.0039
  0
VERTEX
  8
LAYER1
 10
5.5139
 20
3.7222
 30
0
 70
     0
  0
VERTEX
  8
LAYER1
 10
5.5139
 20
3.8611
 30
0
 70
     0
  0
VERTEX
  8
LAYER1
 10
5.7639
 20
3.8611
 30
0
 70
     0
  0
SEQEND
  0
CIRCLE
  8
LAYER1
 10
5.8194
 20
3.8472
 30
0
 40
0.0556
  0
CIRCLE
  8
LAYER1
 10
5.8194
 20
3.8472
 30
0
 40
0.0556
  0
LINE
  8
LAYER1
  6
CONTINUOUS
 62
     7
 10
5
 20
3.6528
 30
0
 11
5.625
 21
3.6528
 31
0
  0
LINE
  8
LAYER1
  6
CONTINUOUS
 62
     0
 10
5.2361
 20
3.0556
 30
0
 11
5.4028
 21
3.2361
 31
0
  0
LINE
  8
LAYER1
  6
CONTINUOUS
 62
     0
 10
5.2083
 20
3.2083
 30
0
 11
5.4028
 21
3.4028
 31
0
  0
LINE
  8
LAYER1
  6
CONTINUOUS
 62
     0
 10
5.2083
 20
3.3889
 30
0
 11
5.3889
 21
3.5556
 31
0
  0
CIRCLE
  8
LAYER1
 10
5.0139
 20
3.6528
 30
0
 40
0.0556
  0
CIRCLE
  8
LAYER1
 10
5.0139
 20
3.6528
 30
0
 40
0.0556
  0
POLYLINE
  8
LAYER1
  6
CONTINUOUS
 62
     7
 66
     1
 70
     0
 40
0.0039
 41
0.0039
  0
VERTEX
  8
LAYER1
 10
5.4167
 20
3.4583
 30
0
 70
     0
  0
VERTEX
  8
LAYER1
 10
5.4382
 20
3.4539
 30
0
 70
     0
  0
VERTEX
  8
LAYER1
 10
5.4559
 20
3.442
 30
0
 70
     0
  0
VERTEX
  8
LAYER1
 10
5.4678
 20
3.4243
 30
0
 70
     0
  0
VERTEX
  8
LAYER1
 10
5.4722
 20
3.4028
 30
0
 70
     0
  0
VERTEX
  8
LAYER1
 10
5.4722
 20
3.4028
 30
0
 70
     0
  0
VERTEX
  8
LAYER1
 10
5.4678
 20
3.3812
 30
0
 70
     0
  0
VERTEX
  8
LAYER1
 10
5.4559
 20
3.3636
 30
0
 70
     0
  0
VERTEX
  8
LAYER1
 10
5.4382
 20
3.3516
 30
0
 70
     0
  0
VERTEX
  8
LAYER1
 10
5.4167
 20
3.3472
 30
0
 70
     0
  0
SEQEND
  0
POLYLINE
  8
LAYER1
  6
CONTINUOUS
 62
     7
 66
     1
 70
     0
 40
0.0039
 41
0.0039
  0
VERTEX
  8
LAYER1
 10
5.2083
 20
3.25
 30
0
 70
     0
  0
VERTEX
  8
LAYER1
 10
5.1868
 20
3.2544
 30
0
 70
     0
  0
VERTEX
  8
LAYER1
 10
5.1691
 20
3.2663
 30
0
 70
     0
  0
VERTEX
  8
LAYER1
 10
5.1572
 20
3.284
 30
0
 70
     0
  0
VERTEX
  8
LAYER1
 10
5.1528
 20
3.3056
 30
0
 70
     0
  0
VERTEX
  8
LAYER1
 10
5.1528
 20
3.3056
 30
0
 70
     0
  0
VERTEX
  8
LAYER1
 10
5.1572
 20
3.3271
 30
0
 70
     0
  0
VERTEX
  8
LAYER1
 10
5.1691
 20
3.3448
 30
0
 70
     0
  0
VERTEX
  8
LAYER1
 10
5.1868
 20
3.3567
 30
0
 70
     0
  0
VERTEX
  8
LAYER1
 10
5.2083
 20
3.3611
 30
0
 70
     0
  0
SEQEND
  0
POLYLINE
  8
LAYER1
  6
CONTINUOUS
 62
     7
 66
     1
 70
     0
 40
0.0039
 41
0.0039
  0
VERTEX
  8
LAYER1
 10
5.4167
 20
3.2639
 30
0
 70
     0
  0
VERTEX
  8
LAYER1
 10
5.4382
 20
3.2595
 30
0
 70
     0
  0
VERTEX
  8
LAYER1
 10
5.4559
 20
3.2475
 30
0
 70
     0
  0
VERTEX
  8
LAYER1
 10
5.4678
 20
3.2299
 30
0
 70
     0
  0
VERTEX
  8
LAYER1
 10
5.4722
 20
3.2083
 30
0
 70
     0
  0
VERTEX
  8
LAYER1
 10
5.4722
 20
3.2083
 30
0
 70
     0
  0
VERTEX
  8
LAYER1
 10
5.4678
 20
3.1868
 30
0
 70
     0
  0
VERTEX
  8
LAYER1
 10
5.4559
 20
3.1691
 30
0
 70
     0
  0
VERTEX
  8
LAYER1
 10
5.4382
 20
3.1572
 30
0
 70
     0
  0
VERTEX
  8
LAYER1
 10
5.4167
 20
3.1528
 30
0
 70
     0
  0
SEQEND
  0
LINE
  8
LAYER1
  6
CONTINUOUS
 62
     7
 10
5.4028
 20
3.1528
 30
0
 11
5.0139
 21
3.1528
 31
0
  0
POLYLINE
  8
LAYER1
  6
CONTINUOUS
 62
     7
 66
     1
 70
     0
 40
0.0039
 41
0.0039
  0
VERTEX
  8
LAYER1
 10
5.2083
 20
3.5556
 30
0
 70
     0
  0
VERTEX
  8
LAYER1
 10
5.4167
 20
3.5556
 30
0
 70
     0
  0
VERTEX
  8
LAYER1
 10
5.4167
 20
3.0417
 30
0
 70
     0
  0
VERTEX
  8
LAYER1
 10
5.2083
 20
3.0417
 30
0
 70
     0
  0
VERTEX
  8
LAYER1
 10
5.2083
 20
3.5556
 30
0
 70
     0
  0
SEQEND
  0
LINE
  8
LAYER1
  6
CONTINUOUS
 62
     7
 10
5.4028
 20
3.4583
 30
0
 11
5.0139
 21
3.4583
 31
0
  0
LINE
  8
LAYER1
  6
CONTINUOUS
 62
     7
 10
5.2361
 20
3.0556
 30
0
 11
5.4028
 21
3.2361
 31
0
  0
LINE
  8
LAYER1
  6
CONTINUOUS
 62
     7
 10
5.2083
 20
3.2083
 30
0
 11
5.4028
 21
3.4028
 31
0
  0
LINE
  8
LAYER1
  6
CONTINUOUS
 62
     7
 10
5.2083
 20
3.3889
 30
0
 11
5.3889
 21
3.5556
 31
0
  0
LINE
  8
LAYER1
  6
CONTINUOUS
 62
     7
 10
5.2083
 20
3.2639
 30
0
 11
5.4028
 21
3.2639
 31
0
  0
CIRCLE
  8
LAYER1
 10
5.0139
 20
3.4583
 30
0
 40
0.0556
  0
CIRCLE
  8
LAYER1
 10
5.0139
 20
3.4583
 30
0
 40
0.0556
  0
CIRCLE
  8
LAYER1
 10
5.0139
 20
3.1528
 30
0
 40
0.0556
  0
CIRCLE
  8
LAYER1
 10
5.0139
 20
3.1528
 30
0
 40
0.0556
  0
INSERT
  8
LAYER1
  2
Group110
 10
0
 20
0
 30
0
  0
POLYLINE
  8
LAYER1
  6
CONTINUOUS
 62
     7
 66
     1
 70
     0
 40
0.0039
 41
0.0039
  0
VERTEX
  8
LAYER1
 10
5.5139
 20
4.125
 30
0
 70
     0
  0
VERTEX
  8
LAYER1
 10
5.5139
 20
4.2639
 30
0
 70
     0
  0
VERTEX
  8
LAYER1
 10
5.7639
 20
4.2639
 30
0
 70
     0
  0
SEQEND
  0
CIRCLE
  8
LAYER1
 10
5.8194
 20
4.25
 30
0
 40
0.0556
  0
CIRCLE
  8
LAYER1
 10
5.8194
 20
4.25
 30
0
 40
0.0556
  0
LINE
  8
LAYER1
  6
CONTINUOUS
 62
     7
 10
5
 20
4.0556
 30
0
 11
5.625
 21
4.0556
 31
0
  0
CIRCLE
  8
LAYER1
 10
5.0139
 20
4.0556
 30
0
 40
0.0556
  0
CIRCLE
  8
LAYER1
 10
5.0139
 20
4.0556
 30
0
 40
0.0556
  0
LINE
  8
LAYER1
  6
DASH2
 62
     7
 10
5.3056
 20
4.0556
 30
0
 11
5.3056
 21
3.6528
 31
0
  0
INSERT
  8
LAYER1
  2
Group111
 10
0
 20
0
 30
0
  0
ENDBLK
  8
LAYER1
  0
BLOCK
  8
LAYER1
  2
Group113
 70
     0
 10
0
 20
0
 30
0
  0
INSERT
  8
LAYER1
  2
Group112
 10
0
 20
0
 30
0
  0
ENDBLK
  8
LAYER1
  0
BLOCK
  8
LAYER1
  2
Group114
 70
     0
 10
0
 20
0
 30
0
  0
LINE
  8
LAYER1
  6
CONTINUOUS
 62
     7
 10
5.3056
 20
3.7222
 30
0
 11
5.3056
 21
3.7083
 31
0
  0
SOLID
  8
LAYER1
 62
     7
 10
5.5139
 20
1.2639
 30
0
 11
5.4861
 21
1.3333
 31
0
 12
5.5278
 22
1.3333
 32
0
 13
5.5139
 23
1.3333
 33
0
  0
ENDBLK
  8
LAYER1
  0
BLOCK
  8
LAYER1
  2
Group115
 70
     0
 10
0
 20
0
 30
0
  0
SOLID
  8
LAYER1
 62
     7
 10
5.5139
 20
1.2222
 30
0
 11
5.5278
 21
1.1389
 31
0
 12
5.4861
 22
1.1389
 32
0
 13
5.5139
 23
1.1389
 33
0
  0
ENDBLK
  8
LAYER1
  0
BLOCK
  8
LAYER1
  2
Group116
 70
     0
 10
0
 20
0
 30
0
  0
SOLID
  8
LAYER1
 62
     7
 10
5.5139
 20
1.9583
 30
0
 11
5.4861
 21
2.0417
 31
0
 12
5.5278
 22
2.0417
 32
0
 13
5.5139
 23
2.0417
 33
0
  0
ENDBLK
  8
LAYER1
  0
BLOCK
  8
LAYER1
  2
Group117
 70
     0
 10
0
 20
0
 30
0
  0
SOLID
  8
LAYER1
 62
     7
 10
5.5139
 20
1.9167
 30
0
 11
5.5278
 21
1.8472
 31
0
 12
5.4861
 22
1.8472
 32
0
 13
5.5139
 23
1.8472
 33
0
  0
ENDBLK
  8
LAYER1
  0
BLOCK
  8
LAYER1
  2
Group118
 70
     0
 10
0
 20
0
 30
0
  0
INSERT
  8
LAYER1
  2
Group114
 10
0
 20
0
 30
0
  0
POLYLINE
  8
LAYER1
  6
CONTINUOUS
 62
     7
 66
     1
 70
     0
 40
0.0039
 41
0.0039
  0
VERTEX
  8
LAYER1
 10
5.5139
 20
1.3333
 30
0
 70
     0
  0
VERTEX
  8
LAYER1
 10
5.5139
 20
1.4722
 30
0
 70
     0
  0
VERTEX
  8
LAYER1
 10
5.7639
 20
1.4722
 30
0
 70
     0
  0
SEQEND
  0
CIRCLE
  8
LAYER1
 10
5.8194
 20
1.4583
 30
0
 40
0.0556
  0
CIRCLE
  8
LAYER1
 10
5.8194
 20
1.4583
 30
0
 40
0.0556
  0
LINE
  8
LAYER1
  6
CONTINUOUS
 62
     7
 10
5
 20
1.2639
 30
0
 11
5.625
 21
1.2639
 31
0
  0
LINE
  8
LAYER1
  6
CONTINUOUS
 62
     0
 10
5.2361
 20
0.6667
 30
0
 11
5.4028
 21
0.8472
 31
0
  0
LINE
  8
LAYER1
  6
CONTINUOUS
 62
     0
 10
5.2083
 20
0.8194
 30
0
 11
5.4028
 21
1.0139
 31
0
  0
LINE
  8
LAYER1
  6
CONTINUOUS
 62
     0
 10
5.2083
 20
1
 30
0
 11
5.3889
 21
1.1667
 31
0
  0
CIRCLE
  8
LAYER1
 10
5.0139
 20
1.2639
 30
0
 40
0.0556
  0
CIRCLE
  8
LAYER1
 10
5.0139
 20
1.2639
 30
0
 40
0.0556
  0
POLYLINE
  8
LAYER1
  6
CONTINUOUS
 62
     7
 66
     1
 70
     0
 40
0.0039
 41
0.0039
  0
VERTEX
  8
LAYER1
 10
5.4167
 20
1.0694
 30
0
 70
     0
  0
VERTEX
  8
LAYER1
 10
5.4382
 20
1.065
 30
0
 70
     0
  0
VERTEX
  8
LAYER1
 10
5.4559
 20
1.0531
 30
0
 70
     0
  0
VERTEX
  8
LAYER1
 10
5.4678
 20
1.0354
 30
0
 70
     0
  0
VERTEX
  8
LAYER1
 10
5.4722
 20
1.0139
 30
0
 70
     0
  0
VERTEX
  8
LAYER1
 10
5.4722
 20
1.0139
 30
0
 70
     0
  0
VERTEX
  8
LAYER1
 10
5.4678
 20
0.9924
 30
0
 70
     0
  0
VERTEX
  8
LAYER1
 10
5.4559
 20
0.9747
 30
0
 70
     0
  0
VERTEX
  8
LAYER1
 10
5.4382
 20
0.9627
 30
0
 70
     0
  0
VERTEX
  8
LAYER1
 10
5.4167
 20
0.9583
 30
0
 70
     0
  0
SEQEND
  0
POLYLINE
  8
LAYER1
  6
CONTINUOUS
 62
     7
 66
     1
 70
     0
 40
0.0039
 41
0.0039
  0
VERTEX
  8
LAYER1
 10
5.2083
 20
0.8611
 30
0
 70
     0
  0
VERTEX
  8
LAYER1
 10
5.1868
 20
0.8655
 30
0
 70
     0
  0
VERTEX
  8
LAYER1
 10
5.1691
 20
0.8775
 30
0
 70
     0
  0
VERTEX
  8
LAYER1
 10
5.1572
 20
0.8951
 30
0
 70
     0
  0
VERTEX
  8
LAYER1
 10
5.1528
 20
0.9167
 30
0
 70
     0
  0
VERTEX
  8
LAYER1
 10
5.1528
 20
0.9167
 30
0
 70
     0
  0
VERTEX
  8
LAYER1
 10
5.1572
 20
0.9382
 30
0
 70
     0
  0
VERTEX
  8
LAYER1
 10
5.1691
 20
0.9559
 30
0
 70
     0
  0
VERTEX
  8
LAYER1
 10
5.1868
 20
0.9678
 30
0
 70
     0
  0
VERTEX
  8
LAYER1
 10
5.2083
 20
0.9722
 30
0
 70
     0
  0
SEQEND
  0
POLYLINE
  8
LAYER1
  6
CONTINUOUS
 62
     7
 66
     1
 70
     0
 40
0.0039
 41
0.0039
  0
VERTEX
  8
LAYER1
 10
5.4167
 20
0.875
 30
0
 70
     0
  0
VERTEX
  8
LAYER1
 10
5.4382
 20
0.8706
 30
0
 70
     0
  0
VERTEX
  8
LAYER1
 10
5.4559
 20
0.8586
 30
0
 70
     0
  0
VERTEX
  8
LAYER1
 10
5.4678
 20
0.841
 30
0
 70
     0
  0
VERTEX
  8
LAYER1
 10
5.4722
 20
0.8194
 30
0
 70
     0
  0
VERTEX
  8
LAYER1
 10
5.4722
 20
0.8194
 30
0
 70
     0
  0
VERTEX
  8
LAYER1
 10
5.4678
 20
0.7979
 30
0
 70
     0
  0
VERTEX
  8
LAYER1
 10
5.4559
 20
0.7802
 30
0
 70
     0
  0
VERTEX
  8
LAYER1
 10
5.4382
 20
0.7683
 30
0
 70
     0
  0
VERTEX
  8
LAYER1
 10
5.4167
 20
0.7639
 30
0
 70
     0
  0
SEQEND
  0
LINE
  8
LAYER1
  6
CONTINUOUS
 62
     7
 10
5.4028
 20
0.7639
 30
0
 11
5.0139
 21
0.7639
 31
0
  0
POLYLINE
  8
LAYER1
  6
CONTINUOUS
 62
     7
 66
     1
 70
     0
 40
0.0039
 41
0.0039
  0
VERTEX
  8
LAYER1
 10
5.2083
 20
1.1667
 30
0
 70
     0
  0
VERTEX
  8
LAYER1
 10
5.4167
 20
1.1667
 30
0
 70
     0
  0
VERTEX
  8
LAYER1
 10
5.4167
 20
0.6528
 30
0
 70
     0
  0
VERTEX
  8
LAYER1
 10
5.2083
 20
0.6528
 30
0
 70
     0
  0
VERTEX
  8
LAYER1
 10
5.2083
 20
1.1667
 30
0
 70
     0
  0
SEQEND
  0
LINE
  8
LAYER1
  6
CONTINUOUS
 62
     7
 10
5.4028
 20
1.0694
 30
0
 11
5.0139
 21
1.0694
 31
0
  0
LINE
  8
LAYER1
  6
CONTINUOUS
 62
     7
 10
5.2361
 20
0.6667
 30
0
 11
5.4028
 21
0.8472
 31
0
  0
LINE
  8
LAYER1
  6
CONTINUOUS
 62
     7
 10
5.2083
 20
0.8194
 30
0
 11
5.4028
 21
1.0139
 31
0
  0
LINE
  8
LAYER1
  6
CONTINUOUS
 62
     7
 10
5.2083
 20
1
 30
0
 11
5.3889
 21
1.1667
 31
0
  0
LINE
  8
LAYER1
  6
CONTINUOUS
 62
     7
 10
5.2083
 20
0.875
 30
0
 11
5.4028
 21
0.875
 31
0
  0
CIRCLE
  8
LAYER1
 10
5.0139
 20
1.0694
 30
0
 40
0.0556
  0
CIRCLE
  8
LAYER1
 10
5.0139
 20
1.0694
 30
0
 40
0.0556
  0
CIRCLE
  8
LAYER1
 10
5.0139
 20
0.7639
 30
0
 40
0.0556
  0
CIRCLE
  8
LAYER1
 10
5.0139
 20
0.7639
 30
0
 40
0.0556
  0
INSERT
  8
LAYER1
  2
Group115
 10
0
 20
0
 30
0
  0
POLYLINE
  8
LAYER1
  6
CONTINUOUS
 62
     7
 66
     1
 70
     0
 40
0.0039
 41
0.0039
  0
VERTEX
  8
LAYER1
 10
5.5139
 20
1.1389
 30
0
 70
     0
  0
VERTEX
  8
LAYER1
 10
5.5139
 20
0.9722
 30
0
 70
     0
  0
VERTEX
  8
LAYER1
 10
5.7639
 20
0.9722
 30
0
 70
     0
  0
SEQEND
  0
CIRCLE
  8
LAYER1
 10
5.8194
 20
0.9583
 30
0
 40
0.0556
  0
CIRCLE
  8
LAYER1
 10
5.8194
 20
0.9583
 30
0
 40
0.0556
  0
INSERT
  8
LAYER1
  2
Group116
 10
0
 20
0
 30
0
  0
POLYLINE
  8
LAYER1
  6
CONTINUOUS
 62
     7
 66
     1
 70
     0
 40
0.0039
 41
0.0039
  0
VERTEX
  8
LAYER1
 10
5.5139
 20
2.0417
 30
0
 70
     0
  0
VERTEX
  8
LAYER1
 10
5.5139
 20
2.1667
 30
0
 70
     0
  0
VERTEX
  8
LAYER1
 10
5.7639
 20
2.1667
 30
0
 70
     0
  0
SEQEND
  0
CIRCLE
  8
LAYER1
 10
5.8194
 20
2.1667
 30
0
 40
0.0556
  0
CIRCLE
  8
LAYER1
 10
5.8194
 20
2.1667
 30
0
 40
0.0556
  0
LINE
  8
LAYER1
  6
CONTINUOUS
 62
     7
 10
5
 20
1.9722
 30
0
 11
5.625
 21
1.9722
 31
0
  0
CIRCLE
  8
LAYER1
 10
5.0139
 20
1.9583
 30
0
 40
0.0556
  0
CIRCLE
  8
LAYER1
 10
5.0139
 20
1.9583
 30
0
 40
0.0556
  0
INSERT
  8
LAYER1
  2
Group117
 10
0
 20
0
 30
0
  0
POLYLINE
  8
LAYER1
  6
CONTINUOUS
 62
     7
 66
     1
 70
     0
 40
0.0039
 41
0.0039
  0
VERTEX
  8
LAYER1
 10
5.5139
 20
1.8472
 30
0
 70
     0
  0
VERTEX
  8
LAYER1
 10
5.5139
 20
1.6667
 30
0
 70
     0
  0
VERTEX
  8
LAYER1
 10
5.7639
 20
1.6667
 30
0
 70
     0
  0
SEQEND
  0
CIRCLE
  8
LAYER1
 10
5.8194
 20
1.6667
 30
0
 40
0.0556
  0
CIRCLE
  8
LAYER1
 10
5.8194
 20
1.6667
 30
0
 40
0.0556
  0
ENDBLK
  8
LAYER1
  0
BLOCK
  8
LAYER1
  2
Group119
 70
     0
 10
0
 20
0
 30
0
  0
LINE
  8
LAYER1
  6
CONTINUOUS
 62
     7
 10
5.3056
 20
1.9722
 30
0
 11
5.3056
 21
1.9583
 31
0
  0
LINE
  8
LAYER1
  6
CONTINUOUS
 62
     7
 10
5.3056
 20
1.9167
 30
0
 11
5.3056
 21
1.9028
 31
0
  0
LINE
  8
LAYER1
  6
CONTINUOUS
 62
     7
 10
5.3056
 20
1.8611
 30
0
 11
5.3056
 21
1.8472
 31
0
  0
LINE
  8
LAYER1
  6
CONTINUOUS
 62
     7
 10
5.3056
 20
1.8056
 30
0
 11
5.3056
 21
1.7917
 31
0
  0
LINE
  8
LAYER1
  6
CONTINUOUS
 62
     7
 10
5.3056
 20
1.75
 30
0
 11
5.3056
 21
1.7361
 31
0
  0
LINE
  8
LAYER1
  6
CONTINUOUS
 62
     7
 10
5.3056
 20
1.6944
 30
0
 11
5.3056
 21
1.6806
 31
0
  0
LINE
  8
LAYER1
  6
CONTINUOUS
 62
     7
 10
5.3056
 20
1.6389
 30
0
 11
5.3056
 21
1.625
 31
0
  0
LINE
  8
LAYER1
  6
CONTINUOUS
 62
     7
 10
5.3056
 20
1.5833
 30
0
 11
5.3056
 21
1.5694
 31
0
  0
LINE
  8
LAYER1
  6
CONTINUOUS
 62
     7
 10
5.3056
 20
1.5278
 30
0
 11
5.3056
 21
1.5139
 31
0
  0
LINE
  8
LAYER1
  6
CONTINUOUS
 62
     7
 10
5.3056
 20
1.4722
 30
0
 11
5.3056
 21
1.4583
 31
0
  0
LINE
  8
LAYER1
  6
CONTINUOUS
 62
     7
 10
5.3056
 20
1.4167
 30
0
 11
5.3056
 21
1.4028
 31
0
  0
LINE
  8
LAYER1
  6
CONTINUOUS
 62
     7
 10
5.3056
 20
1.3611
 30
0
 11
5.3056
 21
1.3472
 31
0
  0
ENDBLK
  8
LAYER1
  0
BLOCK
  8
LAYER1
  2
Group120
 70
     0
 10
0
 20
0
 30
0
  0
INSERT
  8
LAYER1
  2
Group118
 10
0
 20
0
 30
0
  0
LINE
  8
LAYER1
  6
DASH2
 62
     7
 10
5.3056
 20
1.9722
 30
0
 11
5.3056
 21
1.2639
 31
0
  0
INSERT
  8
LAYER1
  2
Group119
 10
0
 20
0
 30
0
  0
ENDBLK
  8
LAYER1
  0
BLOCK
  8
LAYER1
  2
Group121
 70
     0
 10
0
 20
0
 30
0
  0
INSERT
  8
LAYER1
  2
Group120
 10
0
 20
0
 30
0
  0
ENDBLK
  8
LAYER1
  0
BLOCK
  8
LAYER1
  2
Group122
 70
     0
 10
0
 20
0
 30
0
  0
TEXT
  8
LAYER1
 62
     7
 10
2.5851
 20
0.079
 30
0
 40
0.1389
  1
- 4-320 -
 50
0
999
Geneva
  0
TEXT
  8
LAYER1
 62
     7
 10
10.9601
 20
0.079
 30
0
 40
0.1389
  1
- 4-321 -
 50
0
999
Geneva
  0
INSERT
  8
LAYER1
  2
Group1
 10
0
 20
0
 30
0
  0
TEXT
  8
LAYER1
 62
     7
 10
9.2101
 20
5.8984
 30
0
 40
0.0833
  1
Meter.Volt
 50
0
999
Geneva
  0
TEXT
  8
LAYER1
 62
     7
 10
9.2101
 20
5.704
 30
0
 40
0.0833
  1
Volt Meter
 50
0
999
Geneva
  0
TEXT
  8
LAYER1
 62
     7
 10
11.1545
 20
5.8984
 30
0
 40
0.0833
  1
Meter.Amp
 50
0
999
Geneva
  0
TEXT
  8
LAYER1
 62
     7
 10
11.1545
 20
5.704
 30
0
 40
0.0833
  1
Amp Meter
 50
0
999
Geneva
  0
TEXT
  8
LAYER1
 62
     7
 10
11.1962
 20
9.079
 30
0
 40
0.0833
  1
Antenna.B
 50
0
999
Geneva
  0
TEXT
  8
LAYER1
 62
     7
 10
11.1406
 20
8.8845
 30
0
 40
0.0833
  1
Antenna - B
 50
0
999
Geneva
  0
TEXT
  8
LAYER1
 62
     7
 10
9.224
 20
9.079
 30
0
 40
0.0833
  1
Antenna.A
 50
0
999
Geneva
  0
TEXT
  8
LAYER1
 62
     7
 10
9.1406
 20
8.8845
 30
0
 40
0.0833
  1
Antenna  - A
 50
0
999
Geneva
  0
TEXT
  8
LAYER1
 62
     7
 10
13.0851
 20
9.079
 30
0
 40
0.0833
  1
Antenna Dipole
 50
0
999
Geneva
  0
TEXT
  8
LAYER1
 62
     7
 10
13.0573
 20
8.8845
 30
0
 40
0.0833
  1
Antenna - Diple
 50
0
999
Geneva
  0
TEXT
  8
LAYER1
 62
     7
 10
9.0712
 20
7.579
 30
0
 40
0.0833
  1
Ground.Chassis
 50
0
999
Geneva
  0
TEXT
  8
LAYER1
 62
     7
 10
9.0712
 20
7.3845
 30
0
 40
0.0833
  1
Chassis Ground
 50
0
999
Geneva
  0
TEXT
  8
LAYER1
 62
     7
 10
11.0295
 20
7.579
 30
0
 40
0.0833
  1
Ground.General
 50
0
999
Geneva
  0
TEXT
  8
LAYER1
 62
     7
 10
11.0434
 20
7.3845
 30
0
 40
0.0833
  1
General Ground
 50
0
999
Geneva
  0
TEXT
  8
LAYER1
 62
     7
 10
13.1406
 20
7.579
 30
0
 40
0.0833
  1
Ground.Earth
 50
0
999
Geneva
  0
TEXT
  8
LAYER1
 62
     7
 10
13.1406
 20
7.3845
 30
0
 40
0.0833
  1
Earth Ground
 50
0
999
Geneva
  0
TEXT
  8
LAYER1
 62
     7
 10
13.1962
 20
5.8984
 30
0
 40
0.0833
  1
Meter.Watt
 50
0
999
Geneva
  0
TEXT
  8
LAYER1
 62
     7
 10
13.1962
 20
5.704
 30
0
 40
0.0833
  1
Watt Meter
 50
0
999
Geneva
  0
TEXT
  8
LAYER1
 62
     7
 10
11.0295
 20
2.5234
 30
0
 40
0.0833
  1
Source.Current
 50
0
999
Geneva
  0
TEXT
  8
LAYER1
 62
     7
 10
11.0295
 20
2.329
 30
0
 40
0.0833
  1
Current Source
 50
0
999
Geneva
  0
TEXT
  8
LAYER1
 62
     7
 10
8.974
 20
4.1484
 30
0
 40
0.0833
  1
Source.Signal.Sine
 50
0
999
Geneva
  0
TEXT
  8
LAYER1
 62
     7
 10
8.9879
 20
3.954
 30
0
 40
0.0833
  1
Sine Wave Source
 50
0
999
Geneva
  0
TEXT
  8
LAYER1
 62
     7
 10
10.9462
 20
4.1484
 30
0
 40
0.0833
  1
Source.Signal Sqr
 50
0
999
Geneva
  0
TEXT
  8
LAYER1
 62
     7
 10
10.8629
 20
3.954
 30
0
 40
0.0833
  1
Square Wave Source
 50
0
999
Geneva
  0
TEXT
  8
LAYER1
 62
     7
 10
12.974
 20
4.1484
 30
0
 40
0.0833
  1
Source.Signal Saw
 50
0
999
Geneva
  0
TEXT
  8
LAYER1
 62
     7
 10
12.9879
 20
3.954
 30
0
 40
0.0833
  1
Saw Wave Source
 50
0
999
Geneva
  0
INSERT
  8
LAYER1
  2
Group2
 10
0
 20
0
 30
0
  0
INSERT
  8
LAYER1
  2
Group4
 10
0
 20
0
 30
0
  0
INSERT
  8
LAYER1
  2
Group6
 10
0
 20
0
 30
0
  0
INSERT
  8
LAYER1
  2
Group7
 10
0
 20
0
 30
0
  0
INSERT
  8
LAYER1
  2
Group10
 10
0
 20
0
 30
0
  0
INSERT
  8
LAYER1
  2
Group13
 10
0
 20
0
 30
0
  0
INSERT
  8
LAYER1
  2
Group14
 10
0
 20
0
 30
0
  0
INSERT
  8
LAYER1
  2
Group15
 10
0
 20
0
 30
0
  0
INSERT
  8
LAYER1
  2
Group18
 10
0
 20
0
 30
0
  0
INSERT
  8
LAYER1
  2
Group20
 10
0
 20
0
 30
0
  0
INSERT
  8
LAYER1
  2
Group22
 10
0
 20
0
 30
0
  0
INSERT
  8
LAYER1
  2
Group26
 10
0
 20
0
 30
0
  0
INSERT
  8
LAYER1
  2
Group29
 10
0
 20
0
 30
0
  0
INSERT
  8
LAYER1
  2
Group32
 10
0
 20
0
 30
0
  0
TEXT
  8
LAYER1
 62
     7
 10
0.1962
 20
0.0929
 30
0
 40
0.0833
  1
Scale 1:1 Printed at 70%
 50
0
999
Geneva
  0
TEXT
  8
LAYER1
 62
     7
 10
8.6268
 20
0.0929
 30
0
 40
0.0833
  1
Scale 1:1 Printed at 70%
 50
0
999
Geneva
  0
TEXT
  8
LAYER1
 62
     7
 10
12.6268
 20
0.2456
 30
0
 40
0.0833
  1
©1989,1990,1991,1992
 50
0
999
Geneva
  0
TEXT
  8
LAYER1
 62
     7
 10
12.5018
 20
0.079
 30
0
 40
0.0833
  1
Advanced System Design, Inc.
 50
0
999
Geneva
  0
TEXT
  8
LAYER1
 62
     7
 10
0.5712
 20
9.6762
 30
0
 40
0.0833
  1
Switch.SPST
 50
0
999
Geneva
  0
TEXT
  8
LAYER1
 62
     7
 10
0.1823
 20
9.5234
 30
0
 40
0.0833
  1
Single Pole, Single Throw
 50
0
999
Geneva
  0
INSERT
  8
LAYER1
  2
Group34
 10
0
 20
0
 30
0
  0
TEXT
  8
LAYER1
 62
     7
 10
0.7795
 20
9.3568
 30
0
 40
0.0833
  1
64000
 50
0
999
Geneva
  0
TEXT
  8
LAYER1
 62
     7
 10
0.4323
 20
8.329
 30
0
 40
0.0833
  1
Switch.SPST N.O.
 50
0
999
Geneva
  0
TEXT
  8
LAYER1
 62
     7
 10
0.3351
 20
8.1623
 30
0
 40
0.0833
  1
SPST Normally Open
 50
0
999
Geneva
  0
INSERT
  8
LAYER1
  2
Group41
 10
0
 20
0
 30
0
  0
TEXT
  8
LAYER1
 62
     7
 10
0.7795
 20
7.9818
 30
0
 40
0.0833
  1
64001
 50
0
999
Geneva
  0
TEXT
  8
LAYER1
 62
     7
 10
0.4323
 20
6.8429
 30
0
 40
0.0833
  1
Switch.SPST N.C.
 50
0
999
Geneva
  0
TEXT
  8
LAYER1
 62
     7
 10
0.2795
 20
6.6901
 30
0
 40
0.0833
  1
SPST Normally Closed
 50
0
999
Geneva
  0
INSERT
  8
LAYER1
  2
Group48
 10
0
 20
0
 30
0
  0
TEXT
  8
LAYER1
 62
     7
 10
0.7795
 20
6.5373
 30
0
 40
0.0833
  1
64002
 50
0
999
Geneva
  0
INSERT
  8
LAYER1
  2
Group49
 10
0
 20
0
 30
0
  0
TEXT
  8
LAYER1
 62
     7
 10
0.5712
 20
5.6623
 30
0
 40
0.0833
  1
Switch.SPDT
 50
0
999
Geneva
  0
TEXT
  8
LAYER1
 62
     7
 10
0.1684
 20
5.4956
 30
0
 40
0.0833
  1
Single Pole, Double Throw
 50
0
999
Geneva
  0
TEXT
  8
LAYER1
 62
     7
 10
0.7795
 20
5.3429
 30
0
 40
0.0833
  1
64003
 50
0
999
Geneva
  0
TEXT
  8
LAYER1
 62
     7
 10
0.3906
 20
4.1901
 30
0
 40
0.0833
  1
Switch.SPDT Mom.
 50
0
999
Geneva
  0
TEXT
  8
LAYER1
 62
     7
 10
0.4323
 20
4.0234
 30
0
 40
0.0833
  1
SPDT Momentary
 50
0
999
Geneva
  0
INSERT
  8
LAYER1
  2
Group56
 10
0
 20
0
 30
0
  0
TEXT
  8
LAYER1
 62
     7
 10
0.7795
 20
3.8706
 30
0
 40
0.0833
  1
64004
 50
0
999
Geneva
  0
TEXT
  8
LAYER1
 62
     7
 10
0.5712
 20
2.6068
 30
0
 40
0.0833
  1
Switch.DPST
 50
0
999
Geneva
  0
TEXT
  8
LAYER1
 62
     7
 10
0.1684
 20
2.454
 30
0
 40
0.0833
  1
Double Pole, Single Throw
 50
0
999
Geneva
  0
INSERT
  8
LAYER1
  2
Group60
 10
0
 20
0
 30
0
  0
TEXT
  8
LAYER1
 62
     7
 10
0.7795
 20
2.2873
 30
0
 40
0.0833
  1
64005
 50
0
999
Geneva
  0
INSERT
  8
LAYER1
  2
Group62
 10
0
 20
0
 30
0
  0
TEXT
  8
LAYER1
 62
     7
 10
0.5295
 20
0.6068
 30
0
 40
0.0833
  1
Switch.Rotary
 50
0
999
Geneva
  0
TEXT
  8
LAYER1
 62
     7
 10
0.5295
 20
0.4401
 30
0
 40
0.0833
  1
Rotary Switch
 50
0
999
Geneva
  0
TEXT
  8
LAYER1
 62
     7
 10
0.7795
 20
0.2734
 30
0
 40
0.0833
  1
64006
 50
0
999
Geneva
  0
TEXT
  8
LAYER1
 62
     7
 10
2.5712
 20
8.9679
 30
0
 40
0.0833
  1
Switch.DPST N.O.
 50
0
999
Geneva
  0
TEXT
  8
LAYER1
 62
     7
 10
2.474
 20
8.8151
 30
0
 40
0.0833
  1
DPST Normally Open
 50
0
999
Geneva
  0
INSERT
  8
LAYER1
  2
Group70
 10
0
 20
0
 30
0
  0
TEXT
  8
LAYER1
 62
     7
 10
2.9045
 20
8.6484
 30
0
 40
0.0833
  1
64007
 50
0
999
Geneva
  0
TEXT
  8
LAYER1
 62
     7
 10
2.5712
 20
7.0651
 30
0
 40
0.0833
  1
Switch.DPST N.C.
 50
0
999
Geneva
  0
TEXT
  8
LAYER1
 62
     7
 10
2.4184
 20
6.8984
 30
0
 40
0.0833
  1
DPST Normally Closed
 50
0
999
Geneva
  0
INSERT
  8
LAYER1
  2
Group80
 10
0
 20
0
 30
0
  0
TEXT
  8
LAYER1
 62
     7
 10
2.9045
 20
6.7318
 30
0
 40
0.0833
  1
64008
 50
0
999
Geneva
  0
TEXT
  8
LAYER1
 62
     7
 10
2.7101
 20
5.4123
 30
0
 40
0.0833
  1
Switch.DPDT
 50
0
999
Geneva
  0
TEXT
  8
LAYER1
 62
     7
 10
2.2934
 20
5.2595
 30
0
 40
0.0833
  1
Double Pole, Double Throw
 50
0
999
Geneva
  0
INSERT
  8
LAYER1
  2
Group83
 10
0
 20
0
 30
0
  0
TEXT
  8
LAYER1
 62
     7
 10
2.9045
 20
5.1068
 30
0
 40
0.0833
  1
64009
 50
0
999
Geneva
  0
TEXT
  8
LAYER1
 62
     7
 10
2.7101
 20
3.3151
 30
0
 40
0.0833
  1
Switch.TPDT
 50
0
999
Geneva
  0
TEXT
  8
LAYER1
 62
     7
 10
2.3073
 20
3.1484
 30
0
 40
0.0833
  1
Triple Pole, Double Throw
 50
0
999
Geneva
  0
INSERT
  8
LAYER1
  2
Group86
 10
0
 20
0
 30
0
  0
TEXT
  8
LAYER1
 62
     7
 10
2.9045
 20
2.9818
 30
0
 40
0.0833
  1
64010
 50
0
999
Geneva
  0
TEXT
  8
LAYER1
 62
     7
 10
2.724
 20
2.204
 30
0
 40
0.0833
  1
Switch.Slide
 50
0
999
Geneva
  0
TEXT
  8
LAYER1
 62
     7
 10
2.724
 20
2.0512
 30
0
 40
0.0833
  1
Slide Switch
 50
0
999
Geneva
  0
INSERT
  8
LAYER1
  2
Group88
 10
0
 20
0
 30
0
  0
TEXT
  8
LAYER1
 62
     7
 10
2.9045
 20
1.8984
 30
0
 40
0.0833
  1
64011
 50
0
999
Geneva
  0
TEXT
  8
LAYER1
 62
     7
 10
2.724
 20
0.954
 30
0
 40
0.0833
  1
Switch.Multi
 50
0
999
Geneva
  0
TEXT
  8
LAYER1
 62
     7
 10
2.5712
 20
0.8012
 30
0
 40
0.0833
  1
Multipoint Switch
 50
0
999
Geneva
  0
INSERT
  8
LAYER1
  2
Group91
 10
0
 20
0
 30
0
  0
TEXT
  8
LAYER1
 62
     7
 10
2.9045
 20
0.6345
 30
0
 40
0.0833
  1
64012
 50
0
999
Geneva
  0
TEXT
  8
LAYER1
 62
     7
 10
4.8906
 20
9.829
 30
0
 40
0.0833
  1
Relay.SPST N.O.
 50
0
999
Geneva
  0
TEXT
  8
LAYER1
 62
     7
 10
4.7656
 20
9.6762
 30
0
 40
0.0833
  1
SPST Normally Open
 50
0
999
Geneva
  0
INSERT
  8
LAYER1
  2
Group94
 10
0
 20
0
 30
0
  0
TEXT
  8
LAYER1
 62
     7
 10
5.1962
 20
9.5095
 30
0
 40
0.0833
  1
64013
 50
0
999
Geneva
  0
TEXT
  8
LAYER1
 62
     7
 10
4.8906
 20
8.2318
 30
0
 40
0.0833
  1
Relay.SPST N.C.
 50
0
999
Geneva
  0
TEXT
  8
LAYER1
 62
     7
 10
4.7101
 20
8.079
 30
0
 40
0.0833
  1
SPST Normally Closed
 50
0
999
Geneva
  0
INSERT
  8
LAYER1
  2
Group98
 10
0
 20
0
 30
0
  0
TEXT
  8
LAYER1
 62
     7
 10
5.1962
 20
7.9123
 30
0
 40
0.0833
  1
64014
 50
0
999
Geneva
  0
TEXT
  8
LAYER1
 62
     7
 10
5.0434
 20
6.4956
 30
0
 40
0.0833
  1
Relay.SPDT
 50
0
999
Geneva
  0
TEXT
  8
LAYER1
 62
     7
 10
4.5851
 20
6.3429
 30
0
 40
0.0833
  1
Single Pole, Double Throw
 50
0
999
Geneva
  0
INSERT
  8
LAYER1
  2
Group102
 10
0
 20
0
 30
0
  0
TEXT
  8
LAYER1
 62
     7
 10
5.1962
 20
6.1762
 30
0
 40
0.0833
  1
64015
 50
0
999
Geneva
  0
TEXT
  8
LAYER1
 62
     7
 10
4.8906
 20
4.8012
 30
0
 40
0.0833
  1
Relay.DPST N.O.
 50
0
999
Geneva
  0
TEXT
  8
LAYER1
 62
     7
 10
4.7656
 20
4.6345
 30
0
 40
0.0833
  1
DPST Normally Open
 50
0
999
Geneva
  0
INSERT
  8
LAYER1
  2
Group108
 10
0
 20
0
 30
0
  0
TEXT
  8
LAYER1
 62
     7
 10
5.1962
 20
4.4818
 30
0
 40
0.0833
  1
64016
 50
0
999
Geneva
  0
TEXT
  8
LAYER1
 62
     7
 10
4.8906
 20
2.7456
 30
0
 40
0.0833
  1
Relay.DPST N.C.
 50
0
999
Geneva
  0
TEXT
  8
LAYER1
 62
     7
 10
4.7101
 20
2.579
 30
0
 40
0.0833
  1
DPST Normally Closed
 50
0
999
Geneva
  0
INSERT
  8
LAYER1
  2
Group113
 10
0
 20
0
 30
0
  0
TEXT
  8
LAYER1
 62
     7
 10
5.1962
 20
2.4123
 30
0
 40
0.0833
  1
64017
 50
0
999
Geneva
  0
TEXT
  8
LAYER1
 62
     7
 10
5.0434
 20
0.5373
 30
0
 40
0.0833
  1
Relay.DPDT
 50
0
999
Geneva
  0
TEXT
  8
LAYER1
 62
     7
 10
4.5712
 20
0.3845
 30
0
 40
0.0833
  1
Double Pole, Double Throw
 50
0
999
Geneva
  0
INSERT
  8
LAYER1
  2
Group121
 10
0
 20
0
 30
0
  0
TEXT
  8
LAYER1
 62
     7
 10
5.1962
 20
0.2179
 30
0
 40
0.0833
  1
64018
 50
0
999
Geneva
  0
TEXT
  8
LAYER1
 62
     7
 10
9.3351
 20
8.6901
 30
0
 40
0.0833
  1
64300
 50
0
999
Geneva
  0
TEXT
  8
LAYER1
 62
     7
 10
11.3073
 20
8.704
 30
0
 40
0.0833
  1
64301
 50
0
999
Geneva
  0
TEXT
  8
LAYER1
 62
     7
 10
13.3351
 20
8.6901
 30
0
 40
0.0833
  1
64302
 50
0
999
Geneva
  0
TEXT
  8
LAYER1
 62
     7
 10
9.3351
 20
7.1901
 30
0
 40
0.0833
  1
64303
 50
0
999
Geneva
  0
TEXT
  8
LAYER1
 62
     7
 10
11.3073
 20
7.204
 30
0
 40
0.0833
  1
64304
 50
0
999
Geneva
  0
TEXT
  8
LAYER1
 62
     7
 10
13.3351
 20
7.2318
 30
0
 40
0.0833
  1
64305
 50
0
999
Geneva
  0
TEXT
  8
LAYER1
 62
     7
 10
9.3351
 20
5.5373
 30
0
 40
0.0833
  1
64306
 50
0
999
Geneva
  0
TEXT
  8
LAYER1
 62
     7
 10
11.3073
 20
5.5234
 30
0
 40
0.0833
  1
64307
 50
0
999
Geneva
  0
TEXT
  8
LAYER1
 62
     7
 10
13.3351
 20
5.5373
 30
0
 40
0.0833
  1
64308
 50
0
999
Geneva
  0
TEXT
  8
LAYER1
 62
     7
 10
9.3351
 20
3.7456
 30
0
 40
0.0833
  1
64309
 50
0
999
Geneva
  0
TEXT
  8
LAYER1
 62
     7
 10
11.3073
 20
3.8012
 30
0
 40
0.0833
  1
64310
 50
0
999
Geneva
  0
TEXT
  8
LAYER1
 62
     7
 10
13.3351
 20
3.7873
 30
0
 40
0.0833
  1
64311
 50
0
999
Geneva
  0
TEXT
  8
LAYER1
 62
     7
 10
11.3073
 20
2.1484
 30
0
 40
0.0833
  1
64312
 50
0
999
Geneva
  0
ENDBLK
  8
LAYER1
  0
ENDSEC
  0
SECTION
  2
ENTITIES
  0
INSERT
  8
LAYER1
  2
Group122
 10
0
 20
0
 30
0
  0
ENDSEC
  0
EOF
